ISO-10303-21;
HEADER;
FILE_DESCRIPTION (( 'STEP AP203' ),
    '1' );
FILE_NAME ('11-0206-07_outokumpu.step',
    '2015-08-11T09:47:10',
    ( '' ),
    ( '' ),
    'SwSTEP 2.0',
    'SolidWorks 2008',
    '' );
FILE_SCHEMA (( 'CONFIG_CONTROL_DESIGN' ));
ENDSEC;

DATA;
#1 = ORIENTED_EDGE ( 'NONE', *, *, #145, .T. ) ;
#2 = ORIENTED_EDGE ( 'NONE', *, *, #75, .F. ) ;
#3 = ORIENTED_EDGE ( 'NONE', *, *, #46, .T. ) ;
#4 = ORIENTED_EDGE ( 'NONE', *, *, #29, .F. ) ;
#5 = ORIENTED_EDGE ( 'NONE', *, *, #60, .T. ) ;
#6 = EDGE_LOOP ( 'NONE', ( #8, #4, #5, #10 ) ) ;
#7 = ADVANCED_FACE ( 'NONE', ( #136 ), #132, .T. ) ;
#8 = ORIENTED_EDGE ( 'NONE', *, *, #57, .F. ) ;
#9 = ADVANCED_FACE ( 'NONE', ( #134 ), #128, .T. ) ;
#10 = ORIENTED_EDGE ( 'NONE', *, *, #41, .T. ) ;
#11 = EDGE_LOOP ( 'NONE', ( #13, #12, #55, #51 ) ) ;
#12 = ORIENTED_EDGE ( 'NONE', *, *, #35, .T. ) ;
#13 = ORIENTED_EDGE ( 'NONE', *, *, #79, .F. ) ;
#14 = EDGE_CURVE ( 'NONE', #73, #72, #176, .T. ) ;
#15 = EDGE_LOOP ( 'NONE', ( #24, #17 ) ) ;
#16 = ORIENTED_EDGE ( 'NONE', *, *, #124, .F. ) ;
#17 = ORIENTED_EDGE ( 'NONE', *, *, #85, .T. ) ;
#18 = CC_DESIGN_DATE_AND_TIME_ASSIGNMENT ( #138, #137, ( #22 ) ) ;
#19 = CC_DESIGN_PERSON_AND_ORGANIZATION_ASSIGNMENT ( #21, #20, ( #22 ) ) ;
#20 = PERSON_AND_ORGANIZATION_ROLE ( 'classification_officer' ) ;
#21 = PERSON_AND_ORGANIZATION ( #292, #291 ) ;
#22 = SECURITY_CLASSIFICATION ( '', '', #308 ) ;
#23 = EDGE_LOOP ( 'NONE', ( #28, #31 ) ) ;
#24 = ORIENTED_EDGE ( 'NONE', *, *, #14, .T. ) ;
#25 = EDGE_LOOP ( 'NONE', ( #16, #26 ) ) ;
#26 = ORIENTED_EDGE ( 'NONE', *, *, #35, .F. ) ;
#27 = ADVANCED_FACE ( 'NONE', ( #177, #171 ), #170, .F. ) ;
#28 = ORIENTED_EDGE ( 'NONE', *, *, #29, .T. ) ;
#29 = EDGE_CURVE ( 'NONE', #53, #52, #164, .T. ) ;
#30 = EDGE_LOOP ( 'NONE', ( #2, #33, #1, #3 ) ) ;
#31 = ORIENTED_EDGE ( 'NONE', *, *, #43, .T. ) ;
#32 = ORIENTED_EDGE ( 'NONE', *, *, #142, .F. ) ;
#33 = ORIENTED_EDGE ( 'NONE', *, *, #14, .F. ) ;
#34 = ADVANCED_FACE ( 'NONE', ( #165 ), #158, .F. ) ;
#35 = EDGE_CURVE ( 'NONE', #77, #82, #154, .T. ) ;
#36 = ORIENTED_EDGE ( 'NONE', *, *, #114, .F. ) ;
#37 = ORIENTED_EDGE ( 'NONE', *, *, #38, .T. ) ;
#38 = EDGE_CURVE ( 'NONE', #62, #65, #148, .T. ) ;
#39 = ORIENTED_EDGE ( 'NONE', *, *, #47, .T. ) ;
#40 = ORIENTED_EDGE ( 'NONE', *, *, #41, .F. ) ;
#41 = EDGE_CURVE ( 'NONE', #50, #58, #110, .T. ) ;
#42 = ADVANCED_FACE ( 'NONE', ( #111, #106 ), #105, .F. ) ;
#43 = EDGE_CURVE ( 'NONE', #52, #53, #99, .T. ) ;
#44 = ORIENTED_EDGE ( 'NONE', *, *, #45, .T. ) ;
#45 = EDGE_CURVE ( 'NONE', #58, #50, #93, .T. ) ;
#46 = EDGE_CURVE ( 'NONE', #143, #76, #88, .T. ) ;
#47 = EDGE_CURVE ( 'NONE', #65, #58, #242, .T. ) ;
#48 = ADVANCED_FACE ( 'NONE', ( #278 ), #286, .T. ) ;
#49 = EDGE_LOOP ( 'NONE', ( #36, #37, #39, #40 ) ) ;
#50 = VERTEX_POINT ( 'NONE', #284 ) ;
#51 = ORIENTED_EDGE ( 'NONE', *, *, #38, .F. ) ;
#52 = VERTEX_POINT ( 'NONE', #283 ) ;
#53 = VERTEX_POINT ( 'NONE', #307 ) ;
#54 = CLOSED_SHELL ( 'NONE', ( #123, #66, #83, #118, #48, #42, #27, #34, #7, #9 ) ) ;
#55 = ORIENTED_EDGE ( 'NONE', *, *, #68, .T. ) ;
#56 = ORIENTED_EDGE ( 'NONE', *, *, #57, .T. ) ;
#57 = EDGE_CURVE ( 'NONE', #52, #58, #282, .T. ) ;
#58 = VERTEX_POINT ( 'NONE', #259 ) ;
#59 = ORIENTED_EDGE ( 'NONE', *, *, #60, .F. ) ;
#60 = EDGE_CURVE ( 'NONE', #53, #50, #281, .T. ) ;
#61 = EDGE_LOOP ( 'NONE', ( #70, #56, #44, #59 ) ) ;
#62 = VERTEX_POINT ( 'NONE', #194 ) ;
#63 = ORIENTED_EDGE ( 'NONE', *, *, #64, .F. ) ;
#64 = EDGE_CURVE ( 'NONE', #65, #62, #258, .T. ) ;
#65 = VERTEX_POINT ( 'NONE', #296 ) ;
#66 = ADVANCED_FACE ( 'NONE', ( #198 ), #197, .T. ) ;
#67 = ORIENTED_EDGE ( 'NONE', *, *, #68, .F. ) ;
#68 = EDGE_CURVE ( 'NONE', #82, #65, #274, .T. ) ;
#69 = EDGE_LOOP ( 'NONE', ( #71, #32 ) ) ;
#70 = ORIENTED_EDGE ( 'NONE', *, *, #43, .F. ) ;
#71 = ORIENTED_EDGE ( 'NONE', *, *, #46, .F. ) ;
#72 = VERTEX_POINT ( 'NONE', #262 ) ;
#73 = VERTEX_POINT ( 'NONE', #261 ) ;
#74 = ORIENTED_EDGE ( 'NONE', *, *, #75, .T. ) ;
#75 = EDGE_CURVE ( 'NONE', #72, #76, #190, .T. ) ;
#76 = VERTEX_POINT ( 'NONE', #269 ) ;
#77 = VERTEX_POINT ( 'NONE', #268 ) ;
#78 = ORIENTED_EDGE ( 'NONE', *, *, #79, .T. ) ;
#79 = EDGE_CURVE ( 'NONE', #77, #62, #193, .T. ) ;
#80 = EDGE_LOOP ( 'NONE', ( #84, #74, #141, #144 ) ) ;
#81 = ORIENTED_EDGE ( 'NONE', *, *, #124, .T. ) ;
#82 = VERTEX_POINT ( 'NONE', #182 ) ;
#83 = ADVANCED_FACE ( 'NONE', ( #181 ), #179, .F. ) ;
#84 = ORIENTED_EDGE ( 'NONE', *, *, #85, .F. ) ;
#85 = EDGE_CURVE ( 'NONE', #72, #73, #212, .T. ) ;
#86 = DIRECTION ( 'NONE',  ( -0.0000000000000000000, 1.622018397388891000E-016, -1.000000000000000000 ) ) ;
#87 = AXIS2_PLACEMENT_3D ( 'NONE', #94, #86, #267 ) ;
#88 = CIRCLE ( 'NONE', #87, 18.00000000000001100 ) ;
#89 = COORDINATED_UNIVERSAL_TIME_OFFSET ( 1, 0, .AHEAD. ) ;
#90 = DIRECTION ( 'NONE',  ( 1.000000000000000000, 0.0000000000000000000, 0.0000000000000000000 ) ) ;
#91 = DIRECTION ( 'NONE',  ( -0.0000000000000000000, -0.0000000000000000000, 1.000000000000000000 ) ) ;
#92 = AXIS2_PLACEMENT_3D ( 'NONE', #100, #91, #90 ) ;
#93 = CIRCLE ( 'NONE', #92, 19.47599999999999900 ) ;
#94 = CARTESIAN_POINT ( 'NONE',  ( 0.0000000000000000000, 2.694222958124171300E-015, -38.00000000000000000 ) ) ;
#95 = DIRECTION ( 'NONE',  ( 1.000000000000000000, 0.0000000000000000000, 0.0000000000000000000 ) ) ;
#96 = DIRECTION ( 'NONE',  ( -0.0000000000000000000, -0.0000000000000000000, 1.000000000000000000 ) ) ;
#97 = CARTESIAN_POINT ( 'NONE',  ( 0.0000000000000000000, 0.0000000000000000000, 2.164076523963066500E-017 ) ) ;
#98 = AXIS2_PLACEMENT_3D ( 'NONE', #97, #96, #95 ) ;
#99 = CIRCLE ( 'NONE', #98, 18.79588309337885100 ) ;
#100 = CARTESIAN_POINT ( 'NONE',  ( 0.0000000000000000000, 0.0000000000000000000, -0.6801169066211388800 ) ) ;
#101 = DIRECTION ( 'NONE',  ( 1.000000000000000000, 0.0000000000000000000, 0.0000000000000000000 ) ) ;
#102 = DIRECTION ( 'NONE',  ( 0.0000000000000000000, -0.0000000000000000000, 1.000000000000000000 ) ) ;
#103 = CARTESIAN_POINT ( 'NONE',  ( 0.0000000000000000000, 19.47599999999999900, -38.00000000000000000 ) ) ;
#104 = AXIS2_PLACEMENT_3D ( 'NONE', #103, #102, #101 ) ;
#105 = PLANE ( 'NONE',  #104 ) ;
#106 = FACE_OUTER_BOUND ( 'NONE', #25, .T. ) ;
#107 = DIRECTION ( 'NONE',  ( 1.000000000000000000, 0.0000000000000000000, 0.0000000000000000000 ) ) ;
#108 = DIRECTION ( 'NONE',  ( -0.0000000000000000000, -0.0000000000000000000, 1.000000000000000000 ) ) ;
#109 = AXIS2_PLACEMENT_3D ( 'NONE', #149, #108, #107 ) ;
#110 = CIRCLE ( 'NONE', #109, 19.47599999999999900 ) ;
#111 = FACE_BOUND ( 'NONE', #69, .T. ) ;
#112 = DIRECTION ( 'NONE',  ( 1.000000000000000000, 0.0000000000000000000, 0.0000000000000000000 ) ) ;
#113 = DIRECTION ( 'NONE',  ( -0.0000000000000000000, -0.0000000000000000000, 1.000000000000000000 ) ) ;
#114 = EDGE_CURVE ( 'NONE', #62, #50, #187, .T. ) ;
#115 = ORIENTED_EDGE ( 'NONE', *, *, #45, .F. ) ;
#116 = ORIENTED_EDGE ( 'NONE', *, *, #47, .F. ) ;
#117 = EDGE_LOOP ( 'NONE', ( #81, #78, #63, #67 ) ) ;
#118 = ADVANCED_FACE ( 'NONE', ( #204 ), #202, .T. ) ;
#119 = EDGE_LOOP ( 'NONE', ( #120, #121, #115, #116 ) ) ;
#120 = ORIENTED_EDGE ( 'NONE', *, *, #64, .T. ) ;
#121 = ORIENTED_EDGE ( 'NONE', *, *, #114, .T. ) ;
#122 = MANIFOLD_SOLID_BREP ( 'NONE', #54 ) ;
#123 = ADVANCED_FACE ( 'NONE', ( #203 ), #305, .T. ) ;
#124 = EDGE_CURVE ( 'NONE', #82, #77, #240, .T. ) ;
#125 = DIRECTION ( 'NONE',  ( 1.000000000000000000, 0.0000000000000000000, 0.0000000000000000000 ) ) ;
#126 = DIRECTION ( 'NONE',  ( -0.0000000000000000000, -0.0000000000000000000, 1.000000000000000000 ) ) ;
#127 = AXIS2_PLACEMENT_3D ( 'NONE', #133, #126, #125 ) ;
#128 = CONICAL_SURFACE ( 'NONE', #127, 19.47600000000000300, 0.7853981633974509400 ) ;
#129 = DIRECTION ( 'NONE',  ( -1.000000000000000000, 0.0000000000000000000, 0.0000000000000000000 ) ) ;
#130 = DIRECTION ( 'NONE',  ( 0.0000000000000000000, 0.0000000000000000000, -1.000000000000000000 ) ) ;
#131 = AXIS2_PLACEMENT_3D ( 'NONE', #135, #130, #129 ) ;
#132 = CONICAL_SURFACE ( 'NONE', #131, 18.79588309337885100, 0.7853981633974547200 ) ;
#133 = CARTESIAN_POINT ( 'NONE',  ( 0.0000000000000000000, 0.0000000000000000000, -37.31988309337870600 ) ) ;
#134 = FACE_OUTER_BOUND ( 'NONE', #11, .T. ) ;
#135 = CARTESIAN_POINT ( 'NONE',  ( 0.0000000000000000000, 0.0000000000000000000, 2.164076523963066500E-017 ) ) ;
#136 = FACE_OUTER_BOUND ( 'NONE', #6, .T. ) ;
#137 = DATE_TIME_ROLE ( 'classification_date' ) ;
#138 = DATE_AND_TIME ( #139, #140 ) ;
#139 = CALENDAR_DATE ( 2015, 11, 8 ) ;
#140 = LOCAL_TIME ( 11, 47, 10.00000000000000000, #89 ) ;
#141 = ORIENTED_EDGE ( 'NONE', *, *, #142, .T. ) ;
#142 = EDGE_CURVE ( 'NONE', #76, #143, #235, .T. ) ;
#143 = VERTEX_POINT ( 'NONE', #230 ) ;
#144 = ORIENTED_EDGE ( 'NONE', *, *, #145, .F. ) ;
#145 = EDGE_CURVE ( 'NONE', #73, #143, #257, .T. ) ;
#146 = CARTESIAN_POINT ( 'NONE',  ( 0.0000000000000000000, 0.0000000000000000000, -37.31988309337870600 ) ) ;
#147 = AXIS2_PLACEMENT_3D ( 'NONE', #146, #113, #112 ) ;
#148 = CIRCLE ( 'NONE', #147, 19.47600000000000300 ) ;
#149 = CARTESIAN_POINT ( 'NONE',  ( 0.0000000000000000000, 0.0000000000000000000, -0.6801169066211388800 ) ) ;
#150 = DIRECTION ( 'NONE',  ( 1.000000000000000000, 0.0000000000000000000, 0.0000000000000000000 ) ) ;
#151 = DIRECTION ( 'NONE',  ( -0.0000000000000000000, -0.0000000000000000000, 1.000000000000000000 ) ) ;
#152 = CARTESIAN_POINT ( 'NONE',  ( 0.0000000000000000000, 0.0000000000000000000, -38.00000000000000700 ) ) ;
#153 = AXIS2_PLACEMENT_3D ( 'NONE', #152, #151, #150 ) ;
#154 = CIRCLE ( 'NONE', #153, 18.79588309337869800 ) ;
#155 = DIRECTION ( 'NONE',  ( 0.0000000000000000000, 1.000000000000000000, 0.0000000000000000000 ) ) ;
#156 = DIRECTION ( 'NONE',  ( -0.0000000000000000000, 1.622018397388891000E-016, -1.000000000000000000 ) ) ;
#157 = AXIS2_PLACEMENT_3D ( 'NONE', #159, #156, #155 ) ;
#158 = CYLINDRICAL_SURFACE ( 'NONE', #157, 18.00000000000000400 ) ;
#159 = CARTESIAN_POINT ( 'NONE',  ( 0.0000000000000000000, 2.694222958124183500E-015, -38.00000000000007800 ) ) ;
#160 = DIRECTION ( 'NONE',  ( 1.000000000000000000, 0.0000000000000000000, 0.0000000000000000000 ) ) ;
#161 = DIRECTION ( 'NONE',  ( -0.0000000000000000000, -0.0000000000000000000, 1.000000000000000000 ) ) ;
#162 = CARTESIAN_POINT ( 'NONE',  ( 0.0000000000000000000, 0.0000000000000000000, 2.164076523963066500E-017 ) ) ;
#163 = AXIS2_PLACEMENT_3D ( 'NONE', #162, #161, #160 ) ;
#164 = CIRCLE ( 'NONE', #163, 18.79588309337885100 ) ;
#165 = FACE_OUTER_BOUND ( 'NONE', #30, .T. ) ;
#166 = DIRECTION ( 'NONE',  ( -1.000000000000000000, 0.0000000000000000000, -0.0000000000000000000 ) ) ;
#167 = DIRECTION ( 'NONE',  ( 0.0000000000000000000, 0.0000000000000000000, -1.000000000000000000 ) ) ;
#168 = CARTESIAN_POINT ( 'NONE',  ( 0.0000000000000000000, 19.47599999999999900, -2.168404344971008900E-016 ) ) ;
#169 = AXIS2_PLACEMENT_3D ( 'NONE', #168, #167, #166 ) ;
#170 = PLANE ( 'NONE',  #169 ) ;
#171 = FACE_OUTER_BOUND ( 'NONE', #23, .T. ) ;
#172 = DIRECTION ( 'NONE',  ( 0.0000000000000000000, 1.000000000000000000, 1.622018397388891000E-016 ) ) ;
#173 = DIRECTION ( 'NONE',  ( -0.0000000000000000000, 1.622018397388891000E-016, -1.000000000000000000 ) ) ;
#174 = CARTESIAN_POINT ( 'NONE',  ( 0.0000000000000000000, -3.469446951953615000E-015, 0.0000000000000000000 ) ) ;
#175 = AXIS2_PLACEMENT_3D ( 'NONE', #174, #173, #172 ) ;
#176 = CIRCLE ( 'NONE', #175, 18.00000000000000000 ) ;
#177 = FACE_BOUND ( 'NONE', #15, .T. ) ;
#178 = AXIS2_PLACEMENT_3D ( 'NONE', #180, #189, #188 ) ;
#179 = CYLINDRICAL_SURFACE ( 'NONE', #178, 18.00000000000000400 ) ;
#180 = CARTESIAN_POINT ( 'NONE',  ( 0.0000000000000000000, 2.694222958124183500E-015, -38.00000000000007800 ) ) ;
#181 = FACE_OUTER_BOUND ( 'NONE', #80, .T. ) ;
#182 = CARTESIAN_POINT ( 'NONE',  ( 18.79588309337869800, 0.0000000000000000000, -38.00000000000000700 ) ) ;
#183 = DIRECTION ( 'NONE',  ( -0.7071067811865493500, 8.659274570719377600E-017, 0.7071067811865456900 ) ) ;
#184 = CARTESIAN_POINT ( 'NONE',  ( 0.0000000000000000000, 0.0000000000000000000, -4.336808689942017700E-016 ) ) ;
#185 = DIRECTION ( 'NONE',  ( 1.000000000000000000, 0.0000000000000000000, 0.0000000000000000000 ) ) ;
#186 = DIRECTION ( 'NONE',  ( -0.0000000000000000000, -0.0000000000000000000, 1.000000000000000000 ) ) ;
#187 = LINE ( 'NONE', #207, #206 ) ;
#188 = DIRECTION ( 'NONE',  ( 0.0000000000000000000, 1.000000000000000000, 0.0000000000000000000 ) ) ;
#189 = DIRECTION ( 'NONE',  ( -0.0000000000000000000, 1.622018397388891000E-016, -1.000000000000000000 ) ) ;
#190 = LINE ( 'NONE', #272, #271 ) ;
#191 = VECTOR ( 'NONE', #183, 1000.000000000000000 ) ;
#192 = CARTESIAN_POINT ( 'NONE',  ( -19.47600000000000300, 2.385043334704462300E-015, -37.31988309337870600 ) ) ;
#193 = LINE ( 'NONE', #192, #191 ) ;
#194 = CARTESIAN_POINT ( 'NONE',  ( -19.47600000000000300, 2.385043334704462300E-015, -37.31988309337870600 ) ) ;
#195 = DIRECTION ( 'NONE',  ( -0.7071067811865520100, 0.0000000000000000000, -0.7071067811865431300 ) ) ;
#196 = AXIS2_PLACEMENT_3D ( 'NONE', #277, #276, #275 ) ;
#197 = CONICAL_SURFACE ( 'NONE', #196, 18.79588309337885100, 0.7853981633974547200 ) ;
#198 = FACE_OUTER_BOUND ( 'NONE', #61, .T. ) ;
#199 = DIRECTION ( 'NONE',  ( -0.0000000000000000000, -0.0000000000000000000, 1.000000000000000000 ) ) ;
#200 = CARTESIAN_POINT ( 'NONE',  ( 0.0000000000000000000, 0.0000000000000000000, -4.336808689942017700E-016 ) ) ;
#201 = AXIS2_PLACEMENT_3D ( 'NONE', #200, #199, #306 ) ;
#202 = CYLINDRICAL_SURFACE ( 'NONE', #201, 19.47599999999999900 ) ;
#203 = FACE_OUTER_BOUND ( 'NONE', #117, .T. ) ;
#204 = FACE_OUTER_BOUND ( 'NONE', #119, .T. ) ;
#205 = DIRECTION ( 'NONE',  ( -0.0000000000000000000, -0.0000000000000000000, 1.000000000000000000 ) ) ;
#206 = VECTOR ( 'NONE', #205, 1000.000000000000000 ) ;
#207 = CARTESIAN_POINT ( 'NONE',  ( -19.47599999999999900, 2.385043334704461900E-015, -4.336808689942017700E-016 ) ) ;
#208 = DIRECTION ( 'NONE',  ( 0.0000000000000000000, 1.000000000000000000, 1.622018397388891000E-016 ) ) ;
#209 = DIRECTION ( 'NONE',  ( -0.0000000000000000000, 1.622018397388891000E-016, -1.000000000000000000 ) ) ;
#210 = CARTESIAN_POINT ( 'NONE',  ( 0.0000000000000000000, -3.469446951953615000E-015, 0.0000000000000000000 ) ) ;
#211 = AXIS2_PLACEMENT_3D ( 'NONE', #210, #209, #208 ) ;
#212 = CIRCLE ( 'NONE', #211, 18.00000000000000000 ) ;
#213 = DATE_AND_TIME ( #317, #214 ) ;
#214 = LOCAL_TIME ( 11, 47, 10.00000000000000000, #215 ) ;
#215 = COORDINATED_UNIVERSAL_TIME_OFFSET ( 1, 0, .AHEAD. ) ;
#216 = APPROVAL_PERSON_ORGANIZATION ( #220, #218, #217 ) ;
#217 = APPROVAL_ROLE ( '' ) ;
#218 = APPROVAL ( #219, 'UNSPECIFIED' ) ;
#219 = APPROVAL_STATUS ( 'not_yet_approved' ) ;
#220 = PERSON_AND_ORGANIZATION ( #292, #291 ) ;
#221 = PRODUCT_DEFINITION_FORMATION_WITH_SPECIFIED_SOURCE ( 'ANY', '', #293, .NOT_KNOWN. ) ;
#222 = CC_DESIGN_DATE_AND_TIME_ASSIGNMENT ( #224, #223, ( #332 ) ) ;
#223 = DATE_TIME_ROLE ( 'creation_date' ) ;
#224 = DATE_AND_TIME ( #225, #226 ) ;
#225 = CALENDAR_DATE ( 2015, 11, 8 ) ;
#226 = LOCAL_TIME ( 11, 47, 10.00000000000000000, #227 ) ;
#227 = COORDINATED_UNIVERSAL_TIME_OFFSET ( 1, 0, .AHEAD. ) ;
#228 = DIRECTION ( 'NONE',  ( -0.0000000000000000000, -0.0000000000000000000, 1.000000000000000000 ) ) ;
#229 = VECTOR ( 'NONE', #228, 1000.000000000000000 ) ;
#230 = CARTESIAN_POINT ( 'NONE',  ( 0.0000000000000000000, 18.00000000000001400, -38.00000000000000000 ) ) ;
#231 = DIRECTION ( 'NONE',  ( 0.0000000000000000000, 1.000000000000000000, 0.0000000000000000000 ) ) ;
#232 = DIRECTION ( 'NONE',  ( -0.0000000000000000000, 1.622018397388891000E-016, -1.000000000000000000 ) ) ;
#233 = CARTESIAN_POINT ( 'NONE',  ( 0.0000000000000000000, 2.694222958124171300E-015, -38.00000000000000000 ) ) ;
#234 = AXIS2_PLACEMENT_3D ( 'NONE', #233, #232, #231 ) ;
#235 = CIRCLE ( 'NONE', #234, 18.00000000000001100 ) ;
#236 = DIRECTION ( 'NONE',  ( 1.000000000000000000, 0.0000000000000000000, 0.0000000000000000000 ) ) ;
#237 = DIRECTION ( 'NONE',  ( -0.0000000000000000000, -0.0000000000000000000, 1.000000000000000000 ) ) ;
#238 = CARTESIAN_POINT ( 'NONE',  ( 0.0000000000000000000, 0.0000000000000000000, -38.00000000000000700 ) ) ;
#239 = AXIS2_PLACEMENT_3D ( 'NONE', #238, #237, #236 ) ;
#240 = CIRCLE ( 'NONE', #239, 18.79588309337869800 ) ;
#241 = CARTESIAN_POINT ( 'NONE',  ( 19.47599999999999900, 0.0000000000000000000, -4.336808689942017700E-016 ) ) ;
#242 = LINE ( 'NONE', #241, #229 ) ;
#243 = CARTESIAN_POINT ( 'NONE',  ( 0.0000000000000000000, 0.0000000000000000000, 0.0000000000000000000 ) ) ;
#244 = AXIS2_PLACEMENT_3D ( 'NONE', #243, #246, #245 ) ;
#245 = DIRECTION ( 'NONE',  ( 1.000000000000000000, 0.0000000000000000000, 0.0000000000000000000 ) ) ;
#246 = DIRECTION ( 'NONE',  ( 0.0000000000000000000, 0.0000000000000000000, 1.000000000000000000 ) ) ;
#247 = APPLICATION_CONTEXT ( 'configuration controlled 3d designs of mechanical parts and assemblies' ) ;
#248 = ADVANCED_BREP_SHAPE_REPRESENTATION ( '11-0206-07_outokumpu', ( #122, #244 ), #249 ) ;
#249 =( GEOMETRIC_REPRESENTATION_CONTEXT ( 3 ) GLOBAL_UNCERTAINTY_ASSIGNED_CONTEXT ( ( #250 ) ) GLOBAL_UNIT_ASSIGNED_CONTEXT ( ( #253, #252, #251 ) ) REPRESENTATION_CONTEXT ( 'NONE', 'WORKASPACE' ) );
#250 = UNCERTAINTY_MEASURE_WITH_UNIT (LENGTH_MEASURE( 1.000000000000000100E-005 ), #253, 'distance_accuracy_value', 'NONE');
#251 =( NAMED_UNIT ( * ) SI_UNIT ( $, .STERADIAN. ) SOLID_ANGLE_UNIT ( ) );
#252 =( NAMED_UNIT ( * ) PLANE_ANGLE_UNIT ( ) SI_UNIT ( $, .RADIAN. ) );
#253 =( LENGTH_UNIT ( ) NAMED_UNIT ( * ) SI_UNIT ( .MILLI., .METRE. ) );
#254 = DIRECTION ( 'NONE',  ( -0.0000000000000000000, 1.622018397388891000E-016, -1.000000000000000000 ) ) ;
#255 = VECTOR ( 'NONE', #254, 1000.000000000000000 ) ;
#256 = CARTESIAN_POINT ( 'NONE',  ( 0.0000000000000000000, 18.00000000000000700, -38.00000000000007800 ) ) ;
#257 = LINE ( 'NONE', #256, #255 ) ;
#258 = CIRCLE ( 'NONE', #300, 19.47600000000000300 ) ;
#259 = CARTESIAN_POINT ( 'NONE',  ( 19.47599999999999900, 0.0000000000000000000, -0.6801169066211388800 ) ) ;
#260 = DIRECTION ( 'NONE',  ( 0.7071067811865520100, 8.659274570719409600E-017, -0.7071067811865431300 ) ) ;
#261 = CARTESIAN_POINT ( 'NONE',  ( 0.0000000000000000000, 17.99999999999999600, 2.919633115300003700E-015 ) ) ;
#262 = CARTESIAN_POINT ( 'NONE',  ( 2.204291436880279500E-015, -18.00000000000000400, -2.919633115300003700E-015 ) ) ;
#263 = DIRECTION ( 'NONE',  ( 0.7071067811865493500, 0.0000000000000000000, 0.7071067811865456900 ) ) ;
#264 = VECTOR ( 'NONE', #263, 1000.000000000000000 ) ;
#265 = VECTOR ( 'NONE', #260, 999.9999999999998900 ) ;
#266 = CARTESIAN_POINT ( 'NONE',  ( 18.79588309337885100, 2.301755786185434000E-015, 2.164076523963066500E-017 ) ) ;
#267 = DIRECTION ( 'NONE',  ( 0.0000000000000000000, 1.000000000000000000, 0.0000000000000000000 ) ) ;
#268 = CARTESIAN_POINT ( 'NONE',  ( -18.79588309337869800, 2.343399560444938700E-015, -38.00000000000000700 ) ) ;
#269 = CARTESIAN_POINT ( 'NONE',  ( 2.204291436880279900E-015, -18.00000000000000700, -38.00000000000000000 ) ) ;
#270 = DIRECTION ( 'NONE',  ( -0.0000000000000000000, 1.622018397388891000E-016, -1.000000000000000000 ) ) ;
#271 = VECTOR ( 'NONE', #270, 1000.000000000000000 ) ;
#272 = CARTESIAN_POINT ( 'NONE',  ( 2.204291436880279500E-015, -18.00000000000000000, -38.00000000000007800 ) ) ;
#273 = CARTESIAN_POINT ( 'NONE',  ( 19.47600000000000300, 0.0000000000000000000, -37.31988309337870600 ) ) ;
#274 = LINE ( 'NONE', #273, #264 ) ;
#275 = DIRECTION ( 'NONE',  ( -1.000000000000000000, 0.0000000000000000000, 0.0000000000000000000 ) ) ;
#276 = DIRECTION ( 'NONE',  ( 0.0000000000000000000, 0.0000000000000000000, -1.000000000000000000 ) ) ;
#277 = CARTESIAN_POINT ( 'NONE',  ( 0.0000000000000000000, 0.0000000000000000000, 2.164076523963066500E-017 ) ) ;
#278 = FACE_OUTER_BOUND ( 'NONE', #49, .T. ) ;
#279 = VECTOR ( 'NONE', #195, 999.9999999999998900 ) ;
#280 = CARTESIAN_POINT ( 'NONE',  ( -18.79588309337885100, 0.0000000000000000000, 2.164076523963066500E-017 ) ) ;
#281 = LINE ( 'NONE', #280, #279 ) ;
#282 = LINE ( 'NONE', #266, #265 ) ;
#283 = CARTESIAN_POINT ( 'NONE',  ( 18.79588309337885100, 2.343399560444948200E-015, 2.164076523963066500E-017 ) ) ;
#284 = CARTESIAN_POINT ( 'NONE',  ( -19.47599999999999900, 2.385043334704461900E-015, -0.6801169066211388800 ) ) ;
#285 = AXIS2_PLACEMENT_3D ( 'NONE', #184, #186, #185 ) ;
#286 = CYLINDRICAL_SURFACE ( 'NONE', #285, 19.47599999999999900 ) ;
#287 = APPLICATION_CONTEXT ( 'configuration controlled 3d designs of mechanical parts and assemblies' ) ;
#288 = CC_DESIGN_PERSON_AND_ORGANIZATION_ASSIGNMENT ( #290, #289, ( #293 ) ) ;
#289 = PERSON_AND_ORGANIZATION_ROLE ( 'design_owner' ) ;
#290 = PERSON_AND_ORGANIZATION ( #292, #291 ) ;
#291 = ORGANIZATION ( 'UNSPECIFIED', 'UNSPECIFIED', '' ) ;
#292 = PERSON ( 'UNSPECIFIED', 'UNSPECIFIED', 'UNSPECIFIED', ('UNSPECIFIED'), ('UNSPECIFIED'), ('UNSPECIFIED') ) ;
#293 = PRODUCT ( '11-0206-07_outokumpu', '11-0206-07_outokumpu', '', ( #294 ) ) ;
#294 = MECHANICAL_CONTEXT ( 'NONE', #247, 'mechanical' ) ;
#295 = APPLICATION_PROTOCOL_DEFINITION ( 'international standard', 'config_control_design', 1994, #247 ) ;
#296 = CARTESIAN_POINT ( 'NONE',  ( 19.47600000000000300, 0.0000000000000000000, -37.31988309337870600 ) ) ;
#297 = DIRECTION ( 'NONE',  ( 1.000000000000000000, 0.0000000000000000000, 0.0000000000000000000 ) ) ;
#298 = DIRECTION ( 'NONE',  ( -0.0000000000000000000, -0.0000000000000000000, 1.000000000000000000 ) ) ;
#299 = CARTESIAN_POINT ( 'NONE',  ( 0.0000000000000000000, 0.0000000000000000000, -37.31988309337870600 ) ) ;
#300 = AXIS2_PLACEMENT_3D ( 'NONE', #299, #298, #297 ) ;
#301 = DIRECTION ( 'NONE',  ( 1.000000000000000000, 0.0000000000000000000, 0.0000000000000000000 ) ) ;
#302 = DIRECTION ( 'NONE',  ( -0.0000000000000000000, -0.0000000000000000000, 1.000000000000000000 ) ) ;
#303 = CARTESIAN_POINT ( 'NONE',  ( 0.0000000000000000000, 0.0000000000000000000, -37.31988309337870600 ) ) ;
#304 = AXIS2_PLACEMENT_3D ( 'NONE', #303, #302, #301 ) ;
#305 = CONICAL_SURFACE ( 'NONE', #304, 19.47600000000000300, 0.7853981633974509400 ) ;
#306 = DIRECTION ( 'NONE',  ( 1.000000000000000000, 0.0000000000000000000, 0.0000000000000000000 ) ) ;
#307 = CARTESIAN_POINT ( 'NONE',  ( -18.79588309337885100, 0.0000000000000000000, 2.164076523963066500E-017 ) ) ;
#308 = SECURITY_CLASSIFICATION_LEVEL ( 'unclassified' ) ;
#309 = CC_DESIGN_PERSON_AND_ORGANIZATION_ASSIGNMENT ( #311, #310, ( #221 ) ) ;
#310 = PERSON_AND_ORGANIZATION_ROLE ( 'design_supplier' ) ;
#311 = PERSON_AND_ORGANIZATION ( #292, #291 ) ;
#312 = CC_DESIGN_PERSON_AND_ORGANIZATION_ASSIGNMENT ( #314, #313, ( #221 ) ) ;
#313 = PERSON_AND_ORGANIZATION_ROLE ( 'creator' ) ;
#314 = PERSON_AND_ORGANIZATION ( #292, #291 ) ;
#315 = CC_DESIGN_APPROVAL ( #218, ( #221 ) ) ;
#316 = APPROVAL_DATE_TIME ( #213, #218 ) ;
#317 = CALENDAR_DATE ( 2015, 11, 8 ) ;
#318 = CC_DESIGN_PERSON_AND_ORGANIZATION_ASSIGNMENT ( #320, #319, ( #332 ) ) ;
#319 = PERSON_AND_ORGANIZATION_ROLE ( 'creator' ) ;
#320 = PERSON_AND_ORGANIZATION ( #292, #291 ) ;
#321 = CC_DESIGN_APPROVAL ( #329, ( #332 ) ) ;
#322 = APPROVAL_DATE_TIME ( #323, #329 ) ;
#323 = DATE_AND_TIME ( #324, #325 ) ;
#324 = CALENDAR_DATE ( 2015, 11, 8 ) ;
#325 = LOCAL_TIME ( 11, 47, 10.00000000000000000, #326 ) ;
#326 = COORDINATED_UNIVERSAL_TIME_OFFSET ( 1, 0, .AHEAD. ) ;
#327 = APPROVAL_PERSON_ORGANIZATION ( #331, #329, #328 ) ;
#328 = APPROVAL_ROLE ( '' ) ;
#329 = APPROVAL ( #330, 'UNSPECIFIED' ) ;
#330 = APPROVAL_STATUS ( 'not_yet_approved' ) ;
#331 = PERSON_AND_ORGANIZATION ( #292, #291 ) ;
#332 = PRODUCT_DEFINITION ( 'UNKNOWN', '', #221, #333 ) ;
#333 = DESIGN_CONTEXT ( 'detailed design', #287, 'design' ) ;
#334 = APPLICATION_PROTOCOL_DEFINITION ( 'international standard', 'config_control_design', 1994, #287 ) ;
#335 = APPROVAL ( #337, 'UNSPECIFIED' ) ;
#336 = APPROVAL_ROLE ( '' ) ;
#337 = APPROVAL_STATUS ( 'not_yet_approved' ) ;
#338 = PRODUCT_DEFINITION_SHAPE ( 'NONE', 'NONE',  #332 ) ;
#339 = SHAPE_DEFINITION_REPRESENTATION ( #338, #248 ) ;
#340 = DATE_AND_TIME ( #345, #341 ) ;
#341 = LOCAL_TIME ( 11, 47, 10.00000000000000000, #342 ) ;
#342 = COORDINATED_UNIVERSAL_TIME_OFFSET ( 1, 0, .AHEAD. ) ;
#343 = APPROVAL_PERSON_ORGANIZATION ( #349, #335, #336 ) ;
#344 = APPROVAL_DATE_TIME ( #340, #335 ) ;
#345 = CALENDAR_DATE ( 2015, 11, 8 ) ;
#346 = CC_DESIGN_SECURITY_CLASSIFICATION ( #22, ( #221 ) ) ;
#347 = CC_DESIGN_APPROVAL ( #335, ( #22 ) ) ;
#348 = PRODUCT_RELATED_PRODUCT_CATEGORY ( 'detail', '', ( #293 ) ) ;
#349 = PERSON_AND_ORGANIZATION ( #292, #291 ) ;
ENDSEC;
END-ISO-10303-21;
