ISO-10303-21;
HEADER;
FILE_DESCRIPTION (( 'STEP AP203' ),
    '1' );
FILE_NAME ('3D_R169_ DN44-34_17323199.STEP',
    '2024-07-17T12:16:09',
    ( '' ),
    ( '' ),
    'SwSTEP 2.0',
    'SolidWorks 2024',
    '' );
FILE_SCHEMA (( 'CONFIG_CONTROL_DESIGN' ));
ENDSEC;

DATA;
#1 = VERTEX_POINT ( 'NONE', #125 ) ;
#2 = EDGE_CURVE ( 'NONE', #149, #163, #13, .T. ) ;
#3 = CARTESIAN_POINT ( 'NONE',  ( 0.000000000000000000, 2.445915102700738090E-15, -19.97241248990059503 ) ) ;
#4 = DIRECTION ( 'NONE',  ( 0.000000000000000000, 0.000000000000000000, -1.000000000000000000 ) ) ;
#5 = CARTESIAN_POINT ( 'NONE',  ( 0.000000000000000000, 0.000000000000000000, 0.000000000000000000 ) ) ;
#6 = DIRECTION ( 'NONE',  ( 1.000000000000000000, 0.000000000000000000, 0.000000000000000000 ) ) ;
#7 = DIRECTION ( 'NONE',  ( 1.000000000000000000, 0.000000000000000000, 0.000000000000000000 ) ) ;
#8 = APPROVAL_ROLE ( '' ) ;
#9 = DIRECTION ( 'NONE',  ( 0.000000000000000000, 0.000000000000000000, 1.000000000000000000 ) ) ;
#10 = ADVANCED_FACE ( 'NONE', ( #128, #196 ), #104, .F. ) ;
#11 =( NAMED_UNIT ( * ) PLANE_ANGLE_UNIT ( ) SI_UNIT ( $, .RADIAN. ) );
#12 = COORDINATED_UNIVERSAL_TIME_OFFSET ( 1, 0, .AHEAD. ) ;
#13 = CIRCLE ( 'NONE', #203, 14.97241248990059326 ) ;
#14 = EDGE_CURVE ( 'NONE', #217, #26, #228, .T. ) ;
#15 = ORGANIZATION ( 'UNSPECIFIED', 'UNSPECIFIED', '' ) ;
#16 = APPROVAL_PERSON_ORGANIZATION ( #186, #213, #8 ) ;
#17 = DATE_AND_TIME ( #215, #156 ) ;
#18 = PRODUCT ( '3D_R169_ DN44-34_17323199', '3D_R169_ DN44-34_17323199', '', ( #79 ) ) ;
#19 = VECTOR ( 'NONE', #225, 1000.000000000000114 ) ;
#20 = ORIENTED_EDGE ( 'NONE', *, *, #63, .F. ) ;
#21 = APPROVAL_ROLE ( '' ) ;
#22 = VERTEX_POINT ( 'NONE', #3 ) ;
#23 = DIRECTION ( 'NONE',  ( 1.000000000000000000, 0.000000000000000000, 0.000000000000000000 ) ) ;
#24 = CARTESIAN_POINT ( 'NONE',  ( 29.67120202538928453, 0.000000000000000000, 0.000000000000000000 ) ) ;
#25 = LOCAL_TIME ( 14, 16, 9.000000000000000000, #12 ) ;
#26 = VERTEX_POINT ( 'NONE', #177 ) ;
#27 = AXIS2_PLACEMENT_3D ( 'NONE', #179, #233, #4 ) ;
#28 = AXIS2_PLACEMENT_3D ( 'NONE', #208, #238, #77 ) ;
#29 = DIRECTION ( 'NONE',  ( -1.000000000000000000, -0.000000000000000000, -0.000000000000000000 ) ) ;
#30 = LOCAL_TIME ( 14, 16, 9.000000000000000000, #42 ) ;
#31 = APPLICATION_PROTOCOL_DEFINITION ( 'international standard', 'config_control_design', 1994, #62 ) ;
#32 = EDGE_LOOP ( 'NONE', ( #221, #49 ) ) ;
#33 = DESIGN_CONTEXT ( 'detailed design', #112, 'design' ) ;
#34 = CARTESIAN_POINT ( 'NONE',  ( 30.00000000000000000, 2.081899558550500280E-15, -17.00000000000000000 ) ) ;
#35 = CC_DESIGN_PERSON_AND_ORGANIZATION_ASSIGNMENT ( #210, #121, ( #18 ) ) ;
#36 = DIRECTION ( 'NONE',  ( 1.000000000000000000, 0.000000000000000000, 0.000000000000000000 ) ) ;
#37 = CARTESIAN_POINT ( 'NONE',  ( 30.00000000000000000, 0.000000000000000000, 0.000000000000000000 ) ) ;
#38 = AXIS2_PLACEMENT_3D ( 'NONE', #48, #23, #230 ) ;
#39 = MANIFOLD_SOLID_BREP ( 'Wandung2', #212 ) ;
#40 = COORDINATED_UNIVERSAL_TIME_OFFSET ( 1, 0, .AHEAD. ) ;
#41 = CC_DESIGN_APPROVAL ( #213, ( #241 ) ) ;
#42 = COORDINATED_UNIVERSAL_TIME_OFFSET ( 1, 0, .AHEAD. ) ;
#43 = CC_DESIGN_PERSON_AND_ORGANIZATION_ASSIGNMENT ( #101, #172, ( #241 ) ) ;
#44 = SHAPE_DEFINITION_REPRESENTATION ( #102, #244 ) ;
#45 = ORIENTED_EDGE ( 'NONE', *, *, #63, .T. ) ;
#46 = CC_DESIGN_APPROVAL ( #152, ( #246 ) ) ;
#47 = ADVANCED_FACE ( 'NONE', ( #129 ), #159, .F. ) ;
#48 = CARTESIAN_POINT ( 'NONE',  ( 0.000000000000000000, 0.000000000000000000, 0.000000000000000000 ) ) ;
#49 = ORIENTED_EDGE ( 'NONE', *, *, #140, .F. ) ;
#50 = APPROVAL_DATE_TIME ( #84, #120 ) ;
#51 = CARTESIAN_POINT ( 'NONE',  ( 0.000000000000000000, 0.000000000000000000, 0.000000000000000000 ) ) ;
#52 = DIRECTION ( 'NONE',  ( 0.000000000000000000, 0.000000000000000000, -1.000000000000000000 ) ) ;
#53 = ADVANCED_FACE ( 'NONE', ( #144 ), #183, .F. ) ;
#54 = ORIENTED_EDGE ( 'NONE', *, *, #80, .T. ) ;
#55 = CARTESIAN_POINT ( 'NONE',  ( 30.00000000000000000, 0.000000000000000000, 14.97241248990059326 ) ) ;
#56 = DIRECTION ( 'NONE',  ( -0.9863939238321437486, 2.013306935865720763E-17, -0.1643989873053572082 ) ) ;
#57 = CC_DESIGN_SECURITY_CLASSIFICATION ( #135, ( #241 ) ) ;
#58 = APPROVAL_DATE_TIME ( #123, #213 ) ;
#59 = CARTESIAN_POINT ( 'NONE',  ( 30.00000000000000000, 0.000000000000000000, 0.000000000000000000 ) ) ;
#60 = AXIS2_PLACEMENT_3D ( 'NONE', #155, #6, #73 ) ;
#61 = DIRECTION ( 'NONE',  ( 0.000000000000000000, 0.000000000000000000, 1.000000000000000000 ) ) ;
#62 = APPLICATION_CONTEXT ( 'configuration controlled 3d designs of mechanical parts and assemblies' ) ;
#63 = EDGE_CURVE ( 'NONE', #163, #149, #142, .T. ) ;
#64 = VECTOR ( 'NONE', #93, 1000.000000000000114 ) ;
#65 = VERTEX_POINT ( 'NONE', #71 ) ;
#66 = DIRECTION ( 'NONE',  ( -1.000000000000000000, -0.000000000000000000, -0.000000000000000000 ) ) ;
#67 = AXIS2_PLACEMENT_3D ( 'NONE', #5, #7, #211 ) ;
#68 = CC_DESIGN_APPROVAL ( #120, ( #135 ) ) ;
#69 = ORIENTED_EDGE ( 'NONE', *, *, #178, .F. ) ;
#70 = CARTESIAN_POINT ( 'NONE',  ( 30.00000000000000000, 0.000000000000000000, 0.000000000000000000 ) ) ;
#71 = CARTESIAN_POINT ( 'NONE',  ( 0.000000000000000000, 0.000000000000000000, 19.97241248990059503 ) ) ;
#72 = FACE_OUTER_BOUND ( 'NONE', #249, .T. ) ;
#73 = DIRECTION ( 'NONE',  ( 0.000000000000000000, 0.000000000000000000, -1.000000000000000000 ) ) ;
#74 = EDGE_CURVE ( 'NONE', #65, #22, #154, .T. ) ;
#75 = FACE_BOUND ( 'NONE', #231, .T. ) ;
#76 = CARTESIAN_POINT ( 'NONE',  ( 30.00000000000000000, 0.000000000000000000, 17.00000000000000000 ) ) ;
#77 = DIRECTION ( 'NONE',  ( 0.000000000000000000, 0.000000000000000000, 1.000000000000000000 ) ) ;
#78 = CONICAL_SURFACE ( 'NONE', #28, 17.00000000000000000, 0.1651486774146267711 ) ;
#79 = MECHANICAL_CONTEXT ( 'NONE', #62, 'mechanical' ) ;
#80 = EDGE_CURVE ( 'NONE', #149, #65, #223, .T. ) ;
#81 = APPROVAL_DATE_TIME ( #17, #152 ) ;
#82 = ORIENTED_EDGE ( 'NONE', *, *, #145, .F. ) ;
#83 = ORIENTED_EDGE ( 'NONE', *, *, #191, .F. ) ;
#84 = DATE_AND_TIME ( #194, #30 ) ;
#85 = CARTESIAN_POINT ( 'NONE',  ( 29.67120202538928453, 0.000000000000000000, 0.000000000000000000 ) ) ;
#86 = ORIENTED_EDGE ( 'NONE', *, *, #191, .T. ) ;
#87 = EDGE_CURVE ( 'NONE', #111, #26, #206, .T. ) ;
#88 = ORIENTED_EDGE ( 'NONE', *, *, #80, .F. ) ;
#89 = DIRECTION ( 'NONE',  ( 1.000000000000000000, 0.000000000000000000, 0.000000000000000000 ) ) ;
#90 = EDGE_CURVE ( 'NONE', #22, #65, #200, .T. ) ;
#91 = CARTESIAN_POINT ( 'NONE',  ( 30.00000000000000000, 1.040949779275250140E-15, -17.00000000000000000 ) ) ;
#92 = PERSON_AND_ORGANIZATION_ROLE ( 'creator' ) ;
#93 = DIRECTION ( 'NONE',  ( -0.9863939238321437486, 0.000000000000000000, 0.1643989873053572082 ) ) ;
#94 = CALENDAR_DATE ( 2024, 17, 7 ) ;
#95 = AXIS2_PLACEMENT_3D ( 'NONE', #209, #222, #113 ) ;
#96 = APPROVAL_STATUS ( 'not_yet_approved' ) ;
#97 = AXIS2_PLACEMENT_3D ( 'NONE', #51, #197, #248 ) ;
#98 = PRODUCT_RELATED_PRODUCT_CATEGORY ( 'detail', '', ( #18 ) ) ;
#99 = AXIS2_PLACEMENT_3D ( 'NONE', #59, #36, #134 ) ;
#100 = ADVANCED_FACE ( 'NONE', ( #169 ), #78, .T. ) ;
#101 = PERSON_AND_ORGANIZATION ( #139, #15 ) ;
#102 = PRODUCT_DEFINITION_SHAPE ( 'NONE', 'NONE',  #246 ) ;
#103 = PERSON_AND_ORGANIZATION_ROLE ( 'classification_officer' ) ;
#104 = PLANE ( 'NONE',  #38 ) ;
#105 = ORIENTED_EDGE ( 'NONE', *, *, #158, .T. ) ;
#106 = ORIENTED_EDGE ( 'NONE', *, *, #145, .T. ) ;
#107 = CC_DESIGN_PERSON_AND_ORGANIZATION_ASSIGNMENT ( #189, #92, ( #246 ) ) ;
#108 = VECTOR ( 'NONE', #188, 1000.000000000000114 ) ;
#109 = LOCAL_TIME ( 14, 16, 9.000000000000000000, #239 ) ;
#110 = ORIENTED_EDGE ( 'NONE', *, *, #74, .T. ) ;
#111 = VERTEX_POINT ( 'NONE', #91 ) ;
#112 = APPLICATION_CONTEXT ( 'configuration controlled 3d designs of mechanical parts and assemblies' ) ;
#113 = DIRECTION ( 'NONE',  ( 0.000000000000000000, 0.000000000000000000, -1.000000000000000000 ) ) ;
#114 = CIRCLE ( 'NONE', #60, 17.00000000000000000 ) ;
#115 = CARTESIAN_POINT ( 'NONE',  ( 0.000000000000000000, 0.000000000000000000, 0.000000000000000000 ) ) ;
#116 = ORIENTED_EDGE ( 'NONE', *, *, #178, .T. ) ;
#117 = CARTESIAN_POINT ( 'NONE',  ( 29.67120202538928453, 1.840302726246613862E-15, -15.02721215233571250 ) ) ;
#118 = APPLICATION_PROTOCOL_DEFINITION ( 'international standard', 'config_control_design', 1994, #112 ) ;
#119 = LINE ( 'NONE', #117, #227 ) ;
#120 = APPROVAL ( #219, 'UNSPECIFIED' ) ;
#121 = PERSON_AND_ORGANIZATION_ROLE ( 'design_owner' ) ;
#122 = LOCAL_TIME ( 14, 16, 9.000000000000000000, #40 ) ;
#123 = DATE_AND_TIME ( #226, #109 ) ;
#124 = PERSON_AND_ORGANIZATION ( #139, #15 ) ;
#125 = CARTESIAN_POINT ( 'NONE',  ( 30.00000000000000000, 1.040949779275250140E-15, 17.00000000000000000 ) ) ;
#126 = APPROVAL_PERSON_ORGANIZATION ( #224, #152, #167 ) ;
#127 = EDGE_LOOP ( 'NONE', ( #110, #218 ) ) ;
#128 = FACE_BOUND ( 'NONE', #127, .T. ) ;
#129 = FACE_OUTER_BOUND ( 'NONE', #236, .T. ) ;
#130 = ORIENTED_EDGE ( 'NONE', *, *, #90, .F. ) ;
#131 = AXIS2_PLACEMENT_3D ( 'NONE', #85, #66, #165 ) ;
#132 = CARTESIAN_POINT ( 'NONE',  ( 29.67120202538928453, 0.000000000000000000, 15.02721215233571250 ) ) ;
#133 = ORIENTED_EDGE ( 'NONE', *, *, #87, .T. ) ;
#134 = DIRECTION ( 'NONE',  ( 0.000000000000000000, 0.000000000000000000, -1.000000000000000000 ) ) ;
#135 = SECURITY_CLASSIFICATION ( '', '', #243 ) ;
#136 = CC_DESIGN_PERSON_AND_ORGANIZATION_ASSIGNMENT ( #137, #157, ( #241 ) ) ;
#137 = PERSON_AND_ORGANIZATION ( #139, #15 ) ;
#138 = FACE_OUTER_BOUND ( 'NONE', #143, .T. ) ;
#139 = PERSON ( 'UNSPECIFIED', 'UNSPECIFIED', 'UNSPECIFIED', ('UNSPECIFIED'), ('UNSPECIFIED'), ('UNSPECIFIED') ) ;
#140 = EDGE_CURVE ( 'NONE', #26, #217, #174, .T. ) ;
#141 = APPROVAL_STATUS ( 'not_yet_approved' ) ;
#142 = CIRCLE ( 'NONE', #27, 14.97241248990059326 ) ;
#143 = EDGE_LOOP ( 'NONE', ( #205, #83, #116, #199 ) ) ;
#144 = FACE_OUTER_BOUND ( 'NONE', #164, .T. ) ;
#145 = EDGE_CURVE ( 'NONE', #163, #22, #119, .T. ) ;
#146 = ORIENTED_EDGE ( 'NONE', *, *, #74, .F. ) ;
#147 = DIRECTION ( 'NONE',  ( 1.000000000000000000, 0.000000000000000000, 0.000000000000000000 ) ) ;
#148 = CARTESIAN_POINT ( 'NONE',  ( 0.000000000000000000, 0.000000000000000000, 0.000000000000000000 ) ) ;
#149 = VERTEX_POINT ( 'NONE', #55 ) ;
#150 = UNCERTAINTY_MEASURE_WITH_UNIT (LENGTH_MEASURE( 1.000000000000000082E-05 ), #204, 'distance_accuracy_value', 'NONE');
#151 = PLANE ( 'NONE',  #99 ) ;
#152 = APPROVAL ( #141, 'UNSPECIFIED' ) ;
#153 = DATE_TIME_ROLE ( 'creation_date' ) ;
#154 = CIRCLE ( 'NONE', #173, 19.97241248990059148 ) ;
#155 = CARTESIAN_POINT ( 'NONE',  ( 30.00000000000000000, 0.000000000000000000, 0.000000000000000000 ) ) ;
#156 = LOCAL_TIME ( 14, 16, 9.000000000000000000, #193 ) ;
#157 = PERSON_AND_ORGANIZATION_ROLE ( 'creator' ) ;
#158 = EDGE_CURVE ( 'NONE', #111, #1, #207, .T. ) ;
#159 = CONICAL_SURFACE ( 'NONE', #131, 15.02721215233571250, 0.1651486774146267711 ) ;
#160 = DIRECTION ( 'NONE',  ( -1.000000000000000000, -0.000000000000000000, -0.000000000000000000 ) ) ;
#161 = ORIENTED_EDGE ( 'NONE', *, *, #2, .F. ) ;
#162 = ADVANCED_FACE ( 'NONE', ( #75, #72 ), #151, .T. ) ;
#163 = VERTEX_POINT ( 'NONE', #187 ) ;
#164 = EDGE_LOOP ( 'NONE', ( #202, #106, #146, #88 ) ) ;
#165 = DIRECTION ( 'NONE',  ( 0.000000000000000000, 0.000000000000000000, 1.000000000000000000 ) ) ;
#166 = CONICAL_SURFACE ( 'NONE', #232, 17.00000000000000000, 0.1651486774146267711 ) ;
#167 = APPROVAL_ROLE ( '' ) ;
#168 = ADVANCED_FACE ( 'NONE', ( #138 ), #166, .T. ) ;
#169 = FACE_OUTER_BOUND ( 'NONE', #180, .T. ) ;
#170 = DATE_AND_TIME ( #94, #25 ) ;
#171 =( NAMED_UNIT ( * ) SI_UNIT ( $, .STERADIAN. ) SOLID_ANGLE_UNIT ( ) );
#172 = PERSON_AND_ORGANIZATION_ROLE ( 'design_supplier' ) ;
#173 = AXIS2_PLACEMENT_3D ( 'NONE', #148, #235, #52 ) ;
#174 = CIRCLE ( 'NONE', #67, 22.00000000000000000 ) ;
#175 = CC_DESIGN_DATE_AND_TIME_ASSIGNMENT ( #170, #153, ( #246 ) ) ;
#176 = DATE_AND_TIME ( #190, #122 ) ;
#177 = CARTESIAN_POINT ( 'NONE',  ( 0.000000000000000000, 4.041334437186265411E-15, -22.00000000000000000 ) ) ;
#178 = EDGE_CURVE ( 'NONE', #1, #217, #237, .T. ) ;
#179 = CARTESIAN_POINT ( 'NONE',  ( 30.00000000000000000, 0.000000000000000000, 0.000000000000000000 ) ) ;
#180 = EDGE_LOOP ( 'NONE', ( #234, #133, #198, #69 ) ) ;
#181 = APPROVAL_PERSON_ORGANIZATION ( #124, #120, #21 ) ;
#182 = DIRECTION ( 'NONE',  ( 0.000000000000000000, 0.000000000000000000, 1.000000000000000000 ) ) ;
#183 = CONICAL_SURFACE ( 'NONE', #229, 15.02721215233571250, 0.1651486774146267711 ) ;
#184 = CARTESIAN_POINT ( 'NONE',  ( 0.000000000000000000, -1.347111479062088405E-15, 22.00000000000000000 ) ) ;
#185 = CARTESIAN_POINT ( 'NONE',  ( 30.00000000000000000, 0.000000000000000000, 0.000000000000000000 ) ) ;
#186 = PERSON_AND_ORGANIZATION ( #139, #15 ) ;
#187 = CARTESIAN_POINT ( 'NONE',  ( 30.00000000000000000, 2.139753402913899825E-15, -14.97241248990059326 ) ) ;
#188 = DIRECTION ( 'NONE',  ( -0.9863939238321437486, 2.013306935865720763E-17, -0.1643989873053572082 ) ) ;
#189 = PERSON_AND_ORGANIZATION ( #139, #15 ) ;
#190 = CALENDAR_DATE ( 2024, 17, 7 ) ;
#191 = EDGE_CURVE ( 'NONE', #1, #111, #114, .T. ) ;
#192 = DATE_TIME_ROLE ( 'classification_date' ) ;
#193 = COORDINATED_UNIVERSAL_TIME_OFFSET ( 1, 0, .AHEAD. ) ;
#194 = CALENDAR_DATE ( 2024, 17, 7 ) ;
#195 = AXIS2_PLACEMENT_3D ( 'NONE', #115, #61, #247 ) ;
#196 = FACE_OUTER_BOUND ( 'NONE', #32, .T. ) ;
#197 = DIRECTION ( 'NONE',  ( 1.000000000000000000, 0.000000000000000000, 0.000000000000000000 ) ) ;
#198 = ORIENTED_EDGE ( 'NONE', *, *, #140, .T. ) ;
#199 = ORIENTED_EDGE ( 'NONE', *, *, #14, .T. ) ;
#200 = CIRCLE ( 'NONE', #95, 19.97241248990059148 ) ;
#201 = CC_DESIGN_PERSON_AND_ORGANIZATION_ASSIGNMENT ( #214, #103, ( #135 ) ) ;
#202 = ORIENTED_EDGE ( 'NONE', *, *, #2, .T. ) ;
#203 = AXIS2_PLACEMENT_3D ( 'NONE', #70, #147, #220 ) ;
#204 =( LENGTH_UNIT ( ) NAMED_UNIT ( * ) SI_UNIT ( .MILLI., .METRE. ) );
#205 = ORIENTED_EDGE ( 'NONE', *, *, #87, .F. ) ;
#206 = LINE ( 'NONE', #34, #108 ) ;
#207 = CIRCLE ( 'NONE', #216, 17.00000000000000000 ) ;
#208 = CARTESIAN_POINT ( 'NONE',  ( 30.00000000000000000, 0.000000000000000000, 0.000000000000000000 ) ) ;
#209 = CARTESIAN_POINT ( 'NONE',  ( 0.000000000000000000, 0.000000000000000000, 0.000000000000000000 ) ) ;
#210 = PERSON_AND_ORGANIZATION ( #139, #15 ) ;
#211 = DIRECTION ( 'NONE',  ( 0.000000000000000000, 0.000000000000000000, -1.000000000000000000 ) ) ;
#212 = CLOSED_SHELL ( 'NONE', ( #53, #100, #162, #10, #168, #47 ) ) ;
#213 = APPROVAL ( #96, 'UNSPECIFIED' ) ;
#214 = PERSON_AND_ORGANIZATION ( #139, #15 ) ;
#215 = CALENDAR_DATE ( 2024, 17, 7 ) ;
#216 = AXIS2_PLACEMENT_3D ( 'NONE', #185, #89, #240 ) ;
#217 = VERTEX_POINT ( 'NONE', #184 ) ;
#218 = ORIENTED_EDGE ( 'NONE', *, *, #90, .T. ) ;
#219 = APPROVAL_STATUS ( 'not_yet_approved' ) ;
#220 = DIRECTION ( 'NONE',  ( 0.000000000000000000, 0.000000000000000000, -1.000000000000000000 ) ) ;
#221 = ORIENTED_EDGE ( 'NONE', *, *, #14, .F. ) ;
#222 = DIRECTION ( 'NONE',  ( 1.000000000000000000, 0.000000000000000000, 0.000000000000000000 ) ) ;
#223 = LINE ( 'NONE', #132, #64 ) ;
#224 = PERSON_AND_ORGANIZATION ( #139, #15 ) ;
#225 = DIRECTION ( 'NONE',  ( -0.9863939238321437486, 0.000000000000000000, 0.1643989873053572082 ) ) ;
#226 = CALENDAR_DATE ( 2024, 17, 7 ) ;
#227 = VECTOR ( 'NONE', #56, 1000.000000000000114 ) ;
#228 = CIRCLE ( 'NONE', #97, 22.00000000000000000 ) ;
#229 = AXIS2_PLACEMENT_3D ( 'NONE', #24, #160, #182 ) ;
#230 = DIRECTION ( 'NONE',  ( 0.000000000000000000, 0.000000000000000000, -1.000000000000000000 ) ) ;
#231 = EDGE_LOOP ( 'NONE', ( #161, #20 ) ) ;
#232 = AXIS2_PLACEMENT_3D ( 'NONE', #37, #29, #9 ) ;
#233 = DIRECTION ( 'NONE',  ( 1.000000000000000000, 0.000000000000000000, 0.000000000000000000 ) ) ;
#234 = ORIENTED_EDGE ( 'NONE', *, *, #158, .F. ) ;
#235 = DIRECTION ( 'NONE',  ( 1.000000000000000000, 0.000000000000000000, 0.000000000000000000 ) ) ;
#236 = EDGE_LOOP ( 'NONE', ( #82, #45, #54, #130 ) ) ;
#237 = LINE ( 'NONE', #76, #19 ) ;
#238 = DIRECTION ( 'NONE',  ( -1.000000000000000000, -0.000000000000000000, -0.000000000000000000 ) ) ;
#239 = COORDINATED_UNIVERSAL_TIME_OFFSET ( 1, 0, .AHEAD. ) ;
#240 = DIRECTION ( 'NONE',  ( 0.000000000000000000, 0.000000000000000000, -1.000000000000000000 ) ) ;
#241 = PRODUCT_DEFINITION_FORMATION_WITH_SPECIFIED_SOURCE ( 'ANY', '', #18, .NOT_KNOWN. ) ;
#242 = CC_DESIGN_DATE_AND_TIME_ASSIGNMENT ( #176, #192, ( #135 ) ) ;
#243 = SECURITY_CLASSIFICATION_LEVEL ( 'unclassified' ) ;
#244 = ADVANCED_BREP_SHAPE_REPRESENTATION ( '3D_R169_ DN44-34_17323199', ( #39, #195 ), #245 ) ;
#245 =( GEOMETRIC_REPRESENTATION_CONTEXT ( 3 ) GLOBAL_UNCERTAINTY_ASSIGNED_CONTEXT ( ( #150 ) ) GLOBAL_UNIT_ASSIGNED_CONTEXT ( ( #204, #11, #171 ) ) REPRESENTATION_CONTEXT ( 'NONE', 'WORKASPACE' ) );
#246 = PRODUCT_DEFINITION ( 'UNKNOWN', '', #241, #33 ) ;
#247 = DIRECTION ( 'NONE',  ( 1.000000000000000000, 0.000000000000000000, 0.000000000000000000 ) ) ;
#248 = DIRECTION ( 'NONE',  ( 0.000000000000000000, 0.000000000000000000, -1.000000000000000000 ) ) ;
#249 = EDGE_LOOP ( 'NONE', ( #86, #105 ) ) ;
ENDSEC;
END-ISO-10303-21;
