ISO-10303-21;
HEADER;
FILE_DESCRIPTION (( 'STEP AP203' ),
    '1' );
FILE_NAME ('12-0201-16_outokumpu.step',
    '2015-08-12T08:17:27',
    ( '' ),
    ( '' ),
    'SwSTEP 2.0',
    'SolidWorks 2008',
    '' );
FILE_SCHEMA (( 'CONFIG_CONTROL_DESIGN' ));
ENDSEC;

DATA;
#1 = ORIENTED_EDGE ( 'NONE', *, *, #3, .F. ) ;
#2 = EDGE_LOOP ( 'NONE', ( #4, #40, #70, #78 ) ) ;
#3 = EDGE_CURVE ( 'NONE', #32, #27, #158, .T. ) ;
#4 = ORIENTED_EDGE ( 'NONE', *, *, #53, .F. ) ;
#5 = EDGE_LOOP ( 'NONE', ( #6, #110, #105, #43 ) ) ;
#6 = ORIENTED_EDGE ( 'NONE', *, *, #107, .T. ) ;
#7 = ADVANCED_FACE ( 'NONE', ( #154 ), #120, .T. ) ;
#8 = EDGE_LOOP ( 'NONE', ( #11, #21, #16, #14 ) ) ;
#9 = EDGE_LOOP ( 'NONE', ( #34, #31, #28, #1 ) ) ;
#10 = MANIFOLD_SOLID_BREP ( 'NONE', #93 ) ;
#11 = ORIENTED_EDGE ( 'NONE', *, *, #24, .F. ) ;
#12 = DIRECTION ( 'NONE',  ( 0.0000000000000000000, 1.000000000000000000, 2.282530889443167500E-016 ) ) ;
#13 = ADVANCED_FACE ( 'NONE', ( #119 ), #124, .F. ) ;
#14 = ORIENTED_EDGE ( 'NONE', *, *, #15, .F. ) ;
#15 = EDGE_CURVE ( 'NONE', #22, #18, #140, .T. ) ;
#16 = ORIENTED_EDGE ( 'NONE', *, *, #19, .T. ) ;
#17 = VERTEX_POINT ( 'NONE', #136 ) ;
#18 = VERTEX_POINT ( 'NONE', #135 ) ;
#19 = EDGE_CURVE ( 'NONE', #17, #18, #134, .T. ) ;
#20 = VERTEX_POINT ( 'NONE', #129 ) ;
#21 = ORIENTED_EDGE ( 'NONE', *, *, #23, .T. ) ;
#22 = VERTEX_POINT ( 'NONE', #128 ) ;
#23 = EDGE_CURVE ( 'NONE', #20, #17, #127, .T. ) ;
#24 = EDGE_CURVE ( 'NONE', #20, #22, #146, .T. ) ;
#25 = ADVANCED_FACE ( 'NONE', ( #141 ), #198, .F. ) ;
#26 = EDGE_CURVE ( 'NONE', #30, #27, #171, .T. ) ;
#27 = VERTEX_POINT ( 'NONE', #199 ) ;
#28 = ORIENTED_EDGE ( 'NONE', *, *, #26, .T. ) ;
#29 = EDGE_CURVE ( 'NONE', #33, #30, #206, .T. ) ;
#30 = VERTEX_POINT ( 'NONE', #167 ) ;
#31 = ORIENTED_EDGE ( 'NONE', *, *, #29, .T. ) ;
#32 = VERTEX_POINT ( 'NONE', #166 ) ;
#33 = VERTEX_POINT ( 'NONE', #165 ) ;
#34 = ORIENTED_EDGE ( 'NONE', *, *, #36, .F. ) ;
#35 = EDGE_CURVE ( 'NONE', #47, #71, #164, .T. ) ;
#36 = EDGE_CURVE ( 'NONE', #33, #32, #160, .T. ) ;
#37 = EDGE_CURVE ( 'NONE', #109, #108, #197, .T. ) ;
#38 = EDGE_LOOP ( 'NONE', ( #68, #61 ) ) ;
#39 = EDGE_LOOP ( 'NONE', ( #48, #49, #72, #65 ) ) ;
#40 = ORIENTED_EDGE ( 'NONE', *, *, #50, .T. ) ;
#41 = VERTEX_POINT ( 'NONE', #193 ) ;
#42 = VERTEX_POINT ( 'NONE', #192 ) ;
#43 = ORIENTED_EDGE ( 'NONE', *, *, #44, .F. ) ;
#44 = EDGE_CURVE ( 'NONE', #108, #42, #191, .T. ) ;
#45 = ADVANCED_FACE ( 'NONE', ( #187 ), #186, .T. ) ;
#46 = EDGE_CURVE ( 'NONE', #51, #71, #180, .T. ) ;
#47 = VERTEX_POINT ( 'NONE', #216 ) ;
#48 = ORIENTED_EDGE ( 'NONE', *, *, #103, .F. ) ;
#49 = ORIENTED_EDGE ( 'NONE', *, *, #37, .T. ) ;
#50 = EDGE_CURVE ( 'NONE', #41, #51, #247, .T. ) ;
#51 = VERTEX_POINT ( 'NONE', #207 ) ;
#52 = ADVANCED_FACE ( 'NONE', ( #260 ), #222, .F. ) ;
#53 = EDGE_CURVE ( 'NONE', #41, #47, #225, .T. ) ;
#54 = EDGE_LOOP ( 'NONE', ( #76, #73 ) ) ;
#55 = ORIENTED_EDGE ( 'NONE', *, *, #50, .F. ) ;
#56 = ORIENTED_EDGE ( 'NONE', *, *, #24, .T. ) ;
#57 = ORIENTED_EDGE ( 'NONE', *, *, #69, .T. ) ;
#58 = ORIENTED_EDGE ( 'NONE', *, *, #59, .F. ) ;
#59 = EDGE_CURVE ( 'NONE', #47, #41, #229, .T. ) ;
#60 = EDGE_CURVE ( 'NONE', #22, #20, #214, .T. ) ;
#61 = ORIENTED_EDGE ( 'NONE', *, *, #46, .F. ) ;
#62 = EDGE_LOOP ( 'NONE', ( #63, #64 ) ) ;
#63 = ORIENTED_EDGE ( 'NONE', *, *, #107, .F. ) ;
#64 = ORIENTED_EDGE ( 'NONE', *, *, #37, .F. ) ;
#65 = ORIENTED_EDGE ( 'NONE', *, *, #66, .F. ) ;
#66 = EDGE_CURVE ( 'NONE', #104, #42, #209, .T. ) ;
#67 = ADVANCED_FACE ( 'NONE', ( #210, #278 ), #277, .F. ) ;
#68 = ORIENTED_EDGE ( 'NONE', *, *, #69, .F. ) ;
#69 = EDGE_CURVE ( 'NONE', #71, #51, #241, .T. ) ;
#70 = ORIENTED_EDGE ( 'NONE', *, *, #46, .T. ) ;
#71 = VERTEX_POINT ( 'NONE', #236 ) ;
#72 = ORIENTED_EDGE ( 'NONE', *, *, #44, .T. ) ;
#73 = ORIENTED_EDGE ( 'NONE', *, *, #66, .T. ) ;
#74 = ADVANCED_FACE ( 'NONE', ( #235 ), #232, .F. ) ;
#75 = EDGE_LOOP ( 'NONE', ( #55, #58, #77, #57 ) ) ;
#76 = ORIENTED_EDGE ( 'NONE', *, *, #106, .T. ) ;
#77 = ORIENTED_EDGE ( 'NONE', *, *, #35, .T. ) ;
#78 = ORIENTED_EDGE ( 'NONE', *, *, #35, .F. ) ;
#79 = EDGE_LOOP ( 'NONE', ( #84, #86 ) ) ;
#80 = ORIENTED_EDGE ( 'NONE', *, *, #53, .T. ) ;
#81 = ORIENTED_EDGE ( 'NONE', *, *, #36, .T. ) ;
#82 = ADVANCED_FACE ( 'NONE', ( #233 ), #272, .F. ) ;
#83 = EDGE_LOOP ( 'NONE', ( #114, #150, #91, #92 ) ) ;
#84 = ORIENTED_EDGE ( 'NONE', *, *, #85, .F. ) ;
#85 = EDGE_CURVE ( 'NONE', #18, #17, #271, .T. ) ;
#86 = ORIENTED_EDGE ( 'NONE', *, *, #19, .F. ) ;
#87 = EDGE_LOOP ( 'NONE', ( #152, #126 ) ) ;
#88 = ADVANCED_FACE ( 'NONE', ( #266 ), #259, .F. ) ;
#89 = ORIENTED_EDGE ( 'NONE', *, *, #29, .F. ) ;
#90 = EDGE_CURVE ( 'NONE', #27, #30, #253, .T. ) ;
#91 = ORIENTED_EDGE ( 'NONE', *, *, #15, .T. ) ;
#92 = ORIENTED_EDGE ( 'NONE', *, *, #85, .T. ) ;
#93 = CLOSED_SHELL ( 'NONE', ( #52, #13, #25, #7, #45, #67, #111, #74, #153, #88, #95, #82 ) ) ;
#94 = EDGE_LOOP ( 'NONE', ( #89, #97, #96, #99 ) ) ;
#95 = ADVANCED_FACE ( 'NONE', ( #254, #248 ), #288, .F. ) ;
#96 = ORIENTED_EDGE ( 'NONE', *, *, #3, .T. ) ;
#97 = ORIENTED_EDGE ( 'NONE', *, *, #98, .F. ) ;
#98 = EDGE_CURVE ( 'NONE', #32, #33, #305, .T. ) ;
#99 = ORIENTED_EDGE ( 'NONE', *, *, #90, .T. ) ;
#100 = ORIENTED_EDGE ( 'NONE', *, *, #59, .T. ) ;
#101 = EDGE_LOOP ( 'NONE', ( #151, #81 ) ) ;
#102 = EDGE_LOOP ( 'NONE', ( #100, #80 ) ) ;
#103 = EDGE_CURVE ( 'NONE', #109, #104, #306, .T. ) ;
#104 = VERTEX_POINT ( 'NONE', #301 ) ;
#105 = ORIENTED_EDGE ( 'NONE', *, *, #106, .F. ) ;
#106 = EDGE_CURVE ( 'NONE', #42, #104, #300, .T. ) ;
#107 = EDGE_CURVE ( 'NONE', #108, #109, #295, .T. ) ;
#108 = VERTEX_POINT ( 'NONE', #402 ) ;
#109 = VERTEX_POINT ( 'NONE', #336 ) ;
#110 = ORIENTED_EDGE ( 'NONE', *, *, #103, .T. ) ;
#111 = ADVANCED_FACE ( 'NONE', ( #326, #340 ), #333, .F. ) ;
#112 = EDGE_LOOP ( 'NONE', ( #113, #56 ) ) ;
#113 = ORIENTED_EDGE ( 'NONE', *, *, #60, .T. ) ;
#114 = ORIENTED_EDGE ( 'NONE', *, *, #23, .F. ) ;
#115 = DIRECTION ( 'NONE',  ( -0.0000000000000000000, -0.0000000000000000000, 1.000000000000000000 ) ) ;
#116 = CARTESIAN_POINT ( 'NONE',  ( 0.0000000000000000000, 0.0000000000000000000, -4.336808689942017700E-016 ) ) ;
#117 = AXIS2_PLACEMENT_3D ( 'NONE', #116, #115, #125 ) ;
#118 = CARTESIAN_POINT ( 'NONE',  ( 0.0000000000000000000, 2.694222958124183500E-015, -47.00000000000011400 ) ) ;
#119 = FACE_OUTER_BOUND ( 'NONE', #9, .T. ) ;
#120 = CYLINDRICAL_SURFACE ( 'NONE', #117, 33.14999999999999900 ) ;
#121 = DIRECTION ( 'NONE',  ( 0.0000000000000000000, 1.000000000000000000, 2.438978525099201400E-016 ) ) ;
#122 = DIRECTION ( 'NONE',  ( -0.0000000000000000000, 1.311419129803783700E-016, -1.000000000000000000 ) ) ;
#123 = AXIS2_PLACEMENT_3D ( 'NONE', #118, #122, #121 ) ;
#124 = CYLINDRICAL_SURFACE ( 'NONE', #123, 28.44999999999999900 ) ;
#125 = DIRECTION ( 'NONE',  ( 1.000000000000000000, 0.0000000000000000000, 0.0000000000000000000 ) ) ;
#126 = ORIENTED_EDGE ( 'NONE', *, *, #26, .F. ) ;
#127 = LINE ( 'NONE', #149, #148 ) ;
#128 = CARTESIAN_POINT ( 'NONE',  ( 0.0000000000000000000, 30.40000000000000200, -2.952179749303724400E-015 ) ) ;
#129 = CARTESIAN_POINT ( 'NONE',  ( 3.722803315620028000E-015, -30.40000000000000900, -1.092560805851073100E-014 ) ) ;
#130 = DIRECTION ( 'NONE',  ( 0.0000000000000000000, 1.000000000000000000, 1.141265444721583800E-016 ) ) ;
#131 = DIRECTION ( 'NONE',  ( -0.0000000000000000000, 1.311419129803783700E-016, -1.000000000000000000 ) ) ;
#132 = CARTESIAN_POINT ( 'NONE',  ( 0.0000000000000000000, -1.371176344267560600E-015, -16.00000000000000400 ) ) ;
#133 = AXIS2_PLACEMENT_3D ( 'NONE', #132, #131, #130 ) ;
#134 = CIRCLE ( 'NONE', #133, 30.39999999999999500 ) ;
#135 = CARTESIAN_POINT ( 'NONE',  ( 0.0000000000000000000, 30.39999999999999500, -16.00000000000000000 ) ) ;
#136 = CARTESIAN_POINT ( 'NONE',  ( 3.722803315620026400E-015, -30.39999999999999500, -16.00000000000000700 ) ) ;
#137 = DIRECTION ( 'NONE',  ( -0.0000000000000000000, 1.311419129803783700E-016, -1.000000000000000000 ) ) ;
#138 = VECTOR ( 'NONE', #137, 1000.000000000000000 ) ;
#139 = CARTESIAN_POINT ( 'NONE',  ( 0.0000000000000000000, 30.40000000000000600, -47.00000000000010700 ) ) ;
#140 = LINE ( 'NONE', #139, #138 ) ;
#141 = FACE_OUTER_BOUND ( 'NONE', #2, .T. ) ;
#142 = DIRECTION ( 'NONE',  ( 0.0000000000000000000, 1.000000000000000000, 1.311419129803784000E-016 ) ) ;
#143 = DIRECTION ( 'NONE',  ( -0.0000000000000000000, 1.311419129803783700E-016, -1.000000000000000000 ) ) ;
#144 = CARTESIAN_POINT ( 'NONE',  ( 0.0000000000000000000, -3.469446951953614200E-015, -6.938893903907228400E-015 ) ) ;
#145 = AXIS2_PLACEMENT_3D ( 'NONE', #144, #143, #142 ) ;
#146 = CIRCLE ( 'NONE', #145, 30.40000000000000600 ) ;
#147 = DIRECTION ( 'NONE',  ( -0.0000000000000000000, 1.311419129803783700E-016, -1.000000000000000000 ) ) ;
#148 = VECTOR ( 'NONE', #147, 1000.000000000000000 ) ;
#149 = CARTESIAN_POINT ( 'NONE',  ( 3.722803315620027200E-015, -30.39999999999999900, -47.00000000000012100 ) ) ;
#150 = ORIENTED_EDGE ( 'NONE', *, *, #60, .F. ) ;
#151 = ORIENTED_EDGE ( 'NONE', *, *, #98, .T. ) ;
#152 = ORIENTED_EDGE ( 'NONE', *, *, #90, .F. ) ;
#153 = ADVANCED_FACE ( 'NONE', ( #407, #406 ), #409, .F. ) ;
#154 = FACE_OUTER_BOUND ( 'NONE', #5, .T. ) ;
#155 = DIRECTION ( 'NONE',  ( -0.0000000000000000000, 1.311419129803783700E-016, -1.000000000000000000 ) ) ;
#156 = VECTOR ( 'NONE', #155, 1000.000000000000000 ) ;
#157 = CARTESIAN_POINT ( 'NONE',  ( 0.0000000000000000000, 28.45000000000000300, -47.00000000000010700 ) ) ;
#158 = LINE ( 'NONE', #157, #156 ) ;
#159 = AXIS2_PLACEMENT_3D ( 'NONE', #170, #169, #172 ) ;
#160 = CIRCLE ( 'NONE', #184, 28.44999999999999900 ) ;
#161 = DIRECTION ( 'NONE',  ( -0.0000000000000000000, 1.311419129803783700E-016, -1.000000000000000000 ) ) ;
#162 = VECTOR ( 'NONE', #161, 1000.000000000000000 ) ;
#163 = CARTESIAN_POINT ( 'NONE',  ( 0.0000000000000000000, 30.39999999999999900, -47.00000000000010700 ) ) ;
#164 = LINE ( 'NONE', #163, #162 ) ;
#165 = CARTESIAN_POINT ( 'NONE',  ( 3.484005076624663500E-015, -28.44999999999999900, -16.00000000000000700 ) ) ;
#166 = CARTESIAN_POINT ( 'NONE',  ( 0.0000000000000000000, 28.44999999999999900, -16.00000000000000000 ) ) ;
#167 = CARTESIAN_POINT ( 'NONE',  ( 3.484005076624663500E-015, -28.44999999999999900, -31.00000000000000700 ) ) ;
#168 = VECTOR ( 'NONE', #204, 1000.000000000000000 ) ;
#169 = DIRECTION ( 'NONE',  ( -0.0000000000000000000, 1.311419129803783700E-016, -1.000000000000000000 ) ) ;
#170 = CARTESIAN_POINT ( 'NONE',  ( 0.0000000000000000000, 2.694222958124183500E-015, -47.00000000000011400 ) ) ;
#171 = CIRCLE ( 'NONE', #203, 28.44999999999999900 ) ;
#172 = DIRECTION ( 'NONE',  ( 0.0000000000000000000, 1.000000000000000000, 2.282530889443167500E-016 ) ) ;
#173 = DIRECTION ( 'NONE',  ( -0.0000000000000000000, 1.311419129803783700E-016, -1.000000000000000000 ) ) ;
#174 = CARTESIAN_POINT ( 'NONE',  ( 0.0000000000000000000, 2.694222958124169700E-015, -47.00000000000000700 ) ) ;
#175 = AXIS2_PLACEMENT_3D ( 'NONE', #174, #173, #12 ) ;
#176 = DIRECTION ( 'NONE',  ( 1.000000000000000000, 0.0000000000000000000, 0.0000000000000000000 ) ) ;
#177 = DIRECTION ( 'NONE',  ( -0.0000000000000000000, -0.0000000000000000000, 1.000000000000000000 ) ) ;
#178 = CARTESIAN_POINT ( 'NONE',  ( 0.0000000000000000000, 0.0000000000000000000, -4.336808689942017700E-016 ) ) ;
#179 = AXIS2_PLACEMENT_3D ( 'NONE', #178, #177, #176 ) ;
#180 = CIRCLE ( 'NONE', #175, 30.39999999999999900 ) ;
#181 = DIRECTION ( 'NONE',  ( 0.0000000000000000000, 1.000000000000000000, 1.219489262549600700E-016 ) ) ;
#182 = DIRECTION ( 'NONE',  ( -0.0000000000000000000, 1.311419129803783700E-016, -1.000000000000000000 ) ) ;
#183 = CARTESIAN_POINT ( 'NONE',  ( 0.0000000000000000000, -1.371176344267560600E-015, -16.00000000000000400 ) ) ;
#184 = AXIS2_PLACEMENT_3D ( 'NONE', #183, #182, #181 ) ;
#185 = CARTESIAN_POINT ( 'NONE',  ( 0.0000000000000000000, 0.0000000000000000000, -47.00000000000000000 ) ) ;
#186 = CYLINDRICAL_SURFACE ( 'NONE', #179, 33.14999999999999900 ) ;
#187 = FACE_OUTER_BOUND ( 'NONE', #39, .T. ) ;
#188 = DIRECTION ( 'NONE',  ( -0.0000000000000000000, -0.0000000000000000000, 1.000000000000000000 ) ) ;
#189 = VECTOR ( 'NONE', #188, 1000.000000000000000 ) ;
#190 = CARTESIAN_POINT ( 'NONE',  ( 33.14999999999999900, 0.0000000000000000000, -4.336808689942017700E-016 ) ) ;
#191 = LINE ( 'NONE', #190, #189 ) ;
#192 = CARTESIAN_POINT ( 'NONE',  ( 33.14999999999999900, 0.0000000000000000000, 0.0000000000000000000 ) ) ;
#193 = CARTESIAN_POINT ( 'NONE',  ( 3.722803315620026400E-015, -30.39999999999999500, -31.00000000000000700 ) ) ;
#194 = DIRECTION ( 'NONE',  ( 1.000000000000000000, 0.0000000000000000000, 0.0000000000000000000 ) ) ;
#195 = DIRECTION ( 'NONE',  ( -0.0000000000000000000, -0.0000000000000000000, 1.000000000000000000 ) ) ;
#196 = AXIS2_PLACEMENT_3D ( 'NONE', #185, #195, #194 ) ;
#197 = CIRCLE ( 'NONE', #196, 33.14999999999999900 ) ;
#198 = CYLINDRICAL_SURFACE ( 'NONE', #159, 30.39999999999999500 ) ;
#199 = CARTESIAN_POINT ( 'NONE',  ( 0.0000000000000000000, 28.44999999999999900, -31.00000000000000000 ) ) ;
#200 = DIRECTION ( 'NONE',  ( 0.0000000000000000000, 1.000000000000000000, 1.219489262549600700E-016 ) ) ;
#201 = DIRECTION ( 'NONE',  ( -0.0000000000000000000, 1.311419129803783700E-016, -1.000000000000000000 ) ) ;
#202 = CARTESIAN_POINT ( 'NONE',  ( 0.0000000000000000000, 5.959523504381151300E-016, -31.00000000000000400 ) ) ;
#203 = AXIS2_PLACEMENT_3D ( 'NONE', #202, #201, #200 ) ;
#204 = DIRECTION ( 'NONE',  ( -0.0000000000000000000, 1.311419129803783700E-016, -1.000000000000000000 ) ) ;
#205 = CARTESIAN_POINT ( 'NONE',  ( 3.484005076624663500E-015, -28.44999999999999600, -47.00000000000012100 ) ) ;
#206 = LINE ( 'NONE', #205, #168 ) ;
#207 = CARTESIAN_POINT ( 'NONE',  ( 3.722803315620026400E-015, -30.39999999999999500, -47.00000000000001400 ) ) ;
#208 = DIRECTION ( 'NONE',  ( -0.0000000000000000000, 1.311419129803783700E-016, -1.000000000000000000 ) ) ;
#209 = CIRCLE ( 'NONE', #281, 33.14999999999999900 ) ;
#210 = FACE_BOUND ( 'NONE', #38, .T. ) ;
#211 = DIRECTION ( 'NONE',  ( 0.0000000000000000000, 1.000000000000000000, 1.311419129803784000E-016 ) ) ;
#212 = DIRECTION ( 'NONE',  ( -0.0000000000000000000, 1.311419129803783700E-016, -1.000000000000000000 ) ) ;
#213 = AXIS2_PLACEMENT_3D ( 'NONE', #230, #212, #211 ) ;
#214 = CIRCLE ( 'NONE', #213, 30.40000000000000600 ) ;
#215 = CARTESIAN_POINT ( 'NONE',  ( 0.0000000000000000000, 0.0000000000000000000, 0.0000000000000000000 ) ) ;
#216 = CARTESIAN_POINT ( 'NONE',  ( 0.0000000000000000000, 30.39999999999999500, -31.00000000000000000 ) ) ;
#217 = CARTESIAN_POINT ( 'NONE',  ( 0.0000000000000000000, 5.959523504381151300E-016, -31.00000000000000400 ) ) ;
#218 = DIRECTION ( 'NONE',  ( 0.0000000000000000000, 1.000000000000000000, 1.141265444721583800E-016 ) ) ;
#219 = DIRECTION ( 'NONE',  ( -0.0000000000000000000, 1.311419129803783700E-016, -1.000000000000000000 ) ) ;
#220 = CARTESIAN_POINT ( 'NONE',  ( 0.0000000000000000000, 5.959523504381151300E-016, -31.00000000000000400 ) ) ;
#221 = AXIS2_PLACEMENT_3D ( 'NONE', #246, #245, #244 ) ;
#222 = CYLINDRICAL_SURFACE ( 'NONE', #221, 30.40000000000000200 ) ;
#223 = VECTOR ( 'NONE', #208, 1000.000000000000000 ) ;
#224 = AXIS2_PLACEMENT_3D ( 'NONE', #220, #219, #218 ) ;
#225 = CIRCLE ( 'NONE', #224, 30.39999999999999500 ) ;
#226 = DIRECTION ( 'NONE',  ( 0.0000000000000000000, 1.000000000000000000, 1.141265444721583800E-016 ) ) ;
#227 = DIRECTION ( 'NONE',  ( -0.0000000000000000000, 1.311419129803783700E-016, -1.000000000000000000 ) ) ;
#228 = AXIS2_PLACEMENT_3D ( 'NONE', #217, #227, #226 ) ;
#229 = CIRCLE ( 'NONE', #228, 30.39999999999999500 ) ;
#230 = CARTESIAN_POINT ( 'NONE',  ( 0.0000000000000000000, -3.469446951953614200E-015, -6.938893903907228400E-015 ) ) ;
#231 = AXIS2_PLACEMENT_3D ( 'NONE', #234, #274, #273 ) ;
#232 = CYLINDRICAL_SURFACE ( 'NONE', #231, 30.39999999999999500 ) ;
#233 = FACE_OUTER_BOUND ( 'NONE', #83, .T. ) ;
#234 = CARTESIAN_POINT ( 'NONE',  ( 0.0000000000000000000, 2.694222958124183500E-015, -47.00000000000011400 ) ) ;
#235 = FACE_OUTER_BOUND ( 'NONE', #75, .T. ) ;
#236 = CARTESIAN_POINT ( 'NONE',  ( 0.0000000000000000000, 30.40000000000000200, -47.00000000000000000 ) ) ;
#237 = DIRECTION ( 'NONE',  ( 0.0000000000000000000, 1.000000000000000000, 2.282530889443167500E-016 ) ) ;
#238 = DIRECTION ( 'NONE',  ( -0.0000000000000000000, 1.311419129803783700E-016, -1.000000000000000000 ) ) ;
#239 = CARTESIAN_POINT ( 'NONE',  ( 0.0000000000000000000, 2.694222958124169700E-015, -47.00000000000000700 ) ) ;
#240 = AXIS2_PLACEMENT_3D ( 'NONE', #239, #238, #237 ) ;
#241 = CIRCLE ( 'NONE', #240, 30.39999999999999900 ) ;
#242 = DIRECTION ( 'NONE',  ( 1.000000000000000000, 0.0000000000000000000, 0.0000000000000000000 ) ) ;
#243 = DIRECTION ( 'NONE',  ( 0.0000000000000000000, -0.0000000000000000000, 1.000000000000000000 ) ) ;
#244 = DIRECTION ( 'NONE',  ( 0.0000000000000000000, 1.000000000000000000, 2.282530889443167000E-016 ) ) ;
#245 = DIRECTION ( 'NONE',  ( -0.0000000000000000000, 1.311419129803783700E-016, -1.000000000000000000 ) ) ;
#246 = CARTESIAN_POINT ( 'NONE',  ( 0.0000000000000000000, 2.694222958124183500E-015, -47.00000000000011400 ) ) ;
#247 = LINE ( 'NONE', #261, #223 ) ;
#248 = FACE_BOUND ( 'NONE', #101, .T. ) ;
#249 = DIRECTION ( 'NONE',  ( 0.0000000000000000000, 1.000000000000000000, 1.219489262549600700E-016 ) ) ;
#250 = DIRECTION ( 'NONE',  ( -0.0000000000000000000, 1.311419129803783700E-016, -1.000000000000000000 ) ) ;
#251 = CARTESIAN_POINT ( 'NONE',  ( 0.0000000000000000000, 5.959523504381151300E-016, -31.00000000000000400 ) ) ;
#252 = AXIS2_PLACEMENT_3D ( 'NONE', #251, #250, #249 ) ;
#253 = CIRCLE ( 'NONE', #252, 28.44999999999999900 ) ;
#254 = FACE_OUTER_BOUND ( 'NONE', #79, .T. ) ;
#255 = DIRECTION ( 'NONE',  ( 0.0000000000000000000, 1.000000000000000000, 2.438978525099201400E-016 ) ) ;
#256 = DIRECTION ( 'NONE',  ( -0.0000000000000000000, 1.311419129803783700E-016, -1.000000000000000000 ) ) ;
#257 = CARTESIAN_POINT ( 'NONE',  ( 0.0000000000000000000, 2.694222958124183500E-015, -47.00000000000011400 ) ) ;
#258 = AXIS2_PLACEMENT_3D ( 'NONE', #257, #256, #255 ) ;
#259 = CYLINDRICAL_SURFACE ( 'NONE', #258, 28.44999999999999900 ) ;
#260 = FACE_OUTER_BOUND ( 'NONE', #8, .T. ) ;
#261 = CARTESIAN_POINT ( 'NONE',  ( 3.722803315620026400E-015, -30.39999999999999100, -47.00000000000012100 ) ) ;
#262 = DIRECTION ( 'NONE',  ( 0.0000000000000000000, 1.000000000000000000, 1.141265444721583800E-016 ) ) ;
#263 = DIRECTION ( 'NONE',  ( -0.0000000000000000000, 1.311419129803783700E-016, -1.000000000000000000 ) ) ;
#264 = CARTESIAN_POINT ( 'NONE',  ( 0.0000000000000000000, -1.371176344267560600E-015, -16.00000000000000400 ) ) ;
#265 = AXIS2_PLACEMENT_3D ( 'NONE', #264, #263, #262 ) ;
#266 = FACE_OUTER_BOUND ( 'NONE', #94, .T. ) ;
#267 = DIRECTION ( 'NONE',  ( 0.0000000000000000000, 1.000000000000000000, 2.282530889443167000E-016 ) ) ;
#268 = DIRECTION ( 'NONE',  ( -0.0000000000000000000, 1.311419129803783700E-016, -1.000000000000000000 ) ) ;
#269 = CARTESIAN_POINT ( 'NONE',  ( 0.0000000000000000000, 2.694222958124183500E-015, -47.00000000000011400 ) ) ;
#270 = AXIS2_PLACEMENT_3D ( 'NONE', #269, #268, #267 ) ;
#271 = CIRCLE ( 'NONE', #265, 30.39999999999999500 ) ;
#272 = CYLINDRICAL_SURFACE ( 'NONE', #270, 30.40000000000000200 ) ;
#273 = DIRECTION ( 'NONE',  ( 0.0000000000000000000, 1.000000000000000000, 2.282530889443167500E-016 ) ) ;
#274 = DIRECTION ( 'NONE',  ( -0.0000000000000000000, 1.311419129803783700E-016, -1.000000000000000000 ) ) ;
#275 = CARTESIAN_POINT ( 'NONE',  ( 0.0000000000000000000, 33.14999999999999900, -47.00000000000000000 ) ) ;
#276 = AXIS2_PLACEMENT_3D ( 'NONE', #275, #243, #242 ) ;
#277 = PLANE ( 'NONE',  #276 ) ;
#278 = FACE_OUTER_BOUND ( 'NONE', #62, .T. ) ;
#279 = DIRECTION ( 'NONE',  ( 1.000000000000000000, 0.0000000000000000000, 0.0000000000000000000 ) ) ;
#280 = DIRECTION ( 'NONE',  ( -0.0000000000000000000, -0.0000000000000000000, 1.000000000000000000 ) ) ;
#281 = AXIS2_PLACEMENT_3D ( 'NONE', #215, #280, #279 ) ;
#282 = AXIS2_PLACEMENT_3D ( 'NONE', #290, #289, #302 ) ;
#283 = DIRECTION ( 'NONE',  ( -0.0000000000000000000, -0.0000000000000000000, 1.000000000000000000 ) ) ;
#284 = VECTOR ( 'NONE', #283, 1000.000000000000000 ) ;
#285 = CARTESIAN_POINT ( 'NONE',  ( -33.14999999999999900, 4.059570062921180100E-015, -4.336808689942017700E-016 ) ) ;
#286 = DIRECTION ( 'NONE',  ( 0.0000000000000000000, 1.000000000000000000, 1.219489262549600700E-016 ) ) ;
#287 = DIRECTION ( 'NONE',  ( -0.0000000000000000000, 1.311419129803783700E-016, -1.000000000000000000 ) ) ;
#288 = PLANE ( 'NONE',  #282 ) ;
#289 = DIRECTION ( 'NONE',  ( -0.0000000000000000000, 1.311419129803783700E-016, -1.000000000000000000 ) ) ;
#290 = CARTESIAN_POINT ( 'NONE',  ( 0.0000000000000000000, 28.44999999999999900, -16.00000000000000000 ) ) ;
#291 = DIRECTION ( 'NONE',  ( 1.000000000000000000, 0.0000000000000000000, 0.0000000000000000000 ) ) ;
#292 = DIRECTION ( 'NONE',  ( -0.0000000000000000000, -0.0000000000000000000, 1.000000000000000000 ) ) ;
#293 = CARTESIAN_POINT ( 'NONE',  ( 0.0000000000000000000, 0.0000000000000000000, -47.00000000000000000 ) ) ;
#294 = AXIS2_PLACEMENT_3D ( 'NONE', #293, #292, #291 ) ;
#295 = CIRCLE ( 'NONE', #294, 33.14999999999999900 ) ;
#296 = DIRECTION ( 'NONE',  ( 1.000000000000000000, 0.0000000000000000000, 0.0000000000000000000 ) ) ;
#297 = DIRECTION ( 'NONE',  ( -0.0000000000000000000, -0.0000000000000000000, 1.000000000000000000 ) ) ;
#298 = CARTESIAN_POINT ( 'NONE',  ( 0.0000000000000000000, 0.0000000000000000000, 0.0000000000000000000 ) ) ;
#299 = AXIS2_PLACEMENT_3D ( 'NONE', #298, #297, #296 ) ;
#300 = CIRCLE ( 'NONE', #299, 33.14999999999999900 ) ;
#301 = CARTESIAN_POINT ( 'NONE',  ( -33.14999999999999900, 4.059570062921180100E-015, 0.0000000000000000000 ) ) ;
#302 = DIRECTION ( 'NONE',  ( 0.0000000000000000000, 1.000000000000000000, 1.311419129803783700E-016 ) ) ;
#303 = CARTESIAN_POINT ( 'NONE',  ( 0.0000000000000000000, -1.371176344267560600E-015, -16.00000000000000400 ) ) ;
#304 = AXIS2_PLACEMENT_3D ( 'NONE', #303, #287, #286 ) ;
#305 = CIRCLE ( 'NONE', #304, 28.44999999999999900 ) ;
#306 = LINE ( 'NONE', #285, #284 ) ;
#307 = APPROVAL_STATUS ( 'not_yet_approved' ) ;
#308 = PERSON_AND_ORGANIZATION ( #335, #334 ) ;
#309 = APPROVAL_ROLE ( '' ) ;
#310 = APPROVAL ( #307, 'UNSPECIFIED' ) ;
#311 = DATE_AND_TIME ( #313, #314 ) ;
#312 = APPROVAL_DATE_TIME ( #311, #310 ) ;
#313 = CALENDAR_DATE ( 2015, 12, 8 ) ;
#314 = LOCAL_TIME ( 10, 17, 27.00000000000000000, #315 ) ;
#315 = COORDINATED_UNIVERSAL_TIME_OFFSET ( 1, 0, .AHEAD. ) ;
#316 = APPROVAL_PERSON_ORGANIZATION ( #308, #310, #309 ) ;
#317 = PRODUCT_RELATED_PRODUCT_CATEGORY ( 'detail', '', ( #381 ) ) ;
#318 = CC_DESIGN_SECURITY_CLASSIFICATION ( #393, ( #353 ) ) ;
#319 = CC_DESIGN_APPROVAL ( #310, ( #393 ) ) ;
#320 = PRODUCT_DEFINITION_SHAPE ( 'NONE', 'NONE',  #374 ) ;
#321 = SHAPE_DEFINITION_REPRESENTATION ( #320, #330 ) ;
#322 = DIRECTION ( 'NONE',  ( 0.0000000000000000000, -1.000000000000000000, -1.311419129803783700E-016 ) ) ;
#323 = DIRECTION ( 'NONE',  ( 0.0000000000000000000, -1.311419129803783700E-016, 1.000000000000000000 ) ) ;
#324 = CARTESIAN_POINT ( 'NONE',  ( 0.0000000000000000000, 28.44999999999999900, -31.00000000000000000 ) ) ;
#325 = CARTESIAN_POINT ( 'NONE',  ( 0.0000000000000000000, 0.0000000000000000000, 0.0000000000000000000 ) ) ;
#326 = FACE_BOUND ( 'NONE', #112, .T. ) ;
#327 = DIRECTION ( 'NONE',  ( 0.0000000000000000000, 0.0000000000000000000, 1.000000000000000000 ) ) ;
#328 = AXIS2_PLACEMENT_3D ( 'NONE', #325, #327, #339 ) ;
#329 = APPLICATION_CONTEXT ( 'configuration controlled 3d designs of mechanical parts and assemblies' ) ;
#330 = ADVANCED_BREP_SHAPE_REPRESENTATION ( '12-0201-16_outokumpu', ( #10, #328 ), #337 ) ;
#331 =( LENGTH_UNIT ( ) NAMED_UNIT ( * ) SI_UNIT ( .MILLI., .METRE. ) );
#332 = AXIS2_PLACEMENT_3D ( 'NONE', #405, #404, #403 ) ;
#333 = PLANE ( 'NONE',  #332 ) ;
#334 = ORGANIZATION ( 'UNSPECIFIED', 'UNSPECIFIED', '' ) ;
#335 = PERSON ( 'UNSPECIFIED', 'UNSPECIFIED', 'UNSPECIFIED', ('UNSPECIFIED'), ('UNSPECIFIED'), ('UNSPECIFIED') ) ;
#336 = CARTESIAN_POINT ( 'NONE',  ( -33.14999999999999900, 4.059570062921180100E-015, -47.00000000000000000 ) ) ;
#337 =( GEOMETRIC_REPRESENTATION_CONTEXT ( 3 ) GLOBAL_UNCERTAINTY_ASSIGNED_CONTEXT ( ( #338 ) ) GLOBAL_UNIT_ASSIGNED_CONTEXT ( ( #331, #401, #400 ) ) REPRESENTATION_CONTEXT ( 'NONE', 'WORKASPACE' ) );
#338 = UNCERTAINTY_MEASURE_WITH_UNIT (LENGTH_MEASURE( 1.000000000000000100E-005 ), #331, 'distance_accuracy_value', 'NONE');
#339 = DIRECTION ( 'NONE',  ( 1.000000000000000000, 0.0000000000000000000, 0.0000000000000000000 ) ) ;
#340 = FACE_OUTER_BOUND ( 'NONE', #54, .T. ) ;
#341 = PERSON_AND_ORGANIZATION ( #335, #334 ) ;
#342 = CC_DESIGN_APPROVAL ( #350, ( #353 ) ) ;
#343 = APPROVAL_DATE_TIME ( #344, #350 ) ;
#344 = DATE_AND_TIME ( #345, #346 ) ;
#345 = CALENDAR_DATE ( 2015, 12, 8 ) ;
#346 = LOCAL_TIME ( 10, 17, 27.00000000000000000, #347 ) ;
#347 = COORDINATED_UNIVERSAL_TIME_OFFSET ( 1, 0, .AHEAD. ) ;
#348 = APPROVAL_PERSON_ORGANIZATION ( #352, #350, #349 ) ;
#349 = APPROVAL_ROLE ( '' ) ;
#350 = APPROVAL ( #351, 'UNSPECIFIED' ) ;
#351 = APPROVAL_STATUS ( 'not_yet_approved' ) ;
#352 = PERSON_AND_ORGANIZATION ( #335, #334 ) ;
#353 = PRODUCT_DEFINITION_FORMATION_WITH_SPECIFIED_SOURCE ( 'ANY', '', #381, .NOT_KNOWN. ) ;
#354 = CC_DESIGN_DATE_AND_TIME_ASSIGNMENT ( #356, #355, ( #374 ) ) ;
#355 = DATE_TIME_ROLE ( 'creation_date' ) ;
#356 = DATE_AND_TIME ( #357, #358 ) ;
#357 = CALENDAR_DATE ( 2015, 12, 8 ) ;
#358 = LOCAL_TIME ( 10, 17, 27.00000000000000000, #359 ) ;
#359 = COORDINATED_UNIVERSAL_TIME_OFFSET ( 1, 0, .AHEAD. ) ;
#360 = CC_DESIGN_PERSON_AND_ORGANIZATION_ASSIGNMENT ( #362, #361, ( #374 ) ) ;
#361 = PERSON_AND_ORGANIZATION_ROLE ( 'creator' ) ;
#362 = PERSON_AND_ORGANIZATION ( #335, #334 ) ;
#363 = CC_DESIGN_APPROVAL ( #371, ( #374 ) ) ;
#364 = APPROVAL_DATE_TIME ( #365, #371 ) ;
#365 = DATE_AND_TIME ( #366, #367 ) ;
#366 = CALENDAR_DATE ( 2015, 12, 8 ) ;
#367 = LOCAL_TIME ( 10, 17, 27.00000000000000000, #368 ) ;
#368 = COORDINATED_UNIVERSAL_TIME_OFFSET ( 1, 0, .AHEAD. ) ;
#369 = APPROVAL_PERSON_ORGANIZATION ( #373, #371, #370 ) ;
#370 = APPROVAL_ROLE ( '' ) ;
#371 = APPROVAL ( #372, 'UNSPECIFIED' ) ;
#372 = APPROVAL_STATUS ( 'not_yet_approved' ) ;
#373 = PERSON_AND_ORGANIZATION ( #335, #334 ) ;
#374 = PRODUCT_DEFINITION ( 'UNKNOWN', '', #353, #375 ) ;
#375 = DESIGN_CONTEXT ( 'detailed design', #377, 'design' ) ;
#376 = APPLICATION_PROTOCOL_DEFINITION ( 'international standard', 'config_control_design', 1994, #377 ) ;
#377 = APPLICATION_CONTEXT ( 'configuration controlled 3d designs of mechanical parts and assemblies' ) ;
#378 = CC_DESIGN_PERSON_AND_ORGANIZATION_ASSIGNMENT ( #380, #379, ( #381 ) ) ;
#379 = PERSON_AND_ORGANIZATION_ROLE ( 'design_owner' ) ;
#380 = PERSON_AND_ORGANIZATION ( #335, #334 ) ;
#381 = PRODUCT ( '12-0201-16_outokumpu', '12-0201-16_outokumpu', '', ( #382 ) ) ;
#382 = MECHANICAL_CONTEXT ( 'NONE', #329, 'mechanical' ) ;
#383 = APPLICATION_PROTOCOL_DEFINITION ( 'international standard', 'config_control_design', 1994, #329 ) ;
#384 = CC_DESIGN_DATE_AND_TIME_ASSIGNMENT ( #386, #385, ( #393 ) ) ;
#385 = DATE_TIME_ROLE ( 'classification_date' ) ;
#386 = DATE_AND_TIME ( #387, #388 ) ;
#387 = CALENDAR_DATE ( 2015, 12, 8 ) ;
#388 = LOCAL_TIME ( 10, 17, 27.00000000000000000, #389 ) ;
#389 = COORDINATED_UNIVERSAL_TIME_OFFSET ( 1, 0, .AHEAD. ) ;
#390 = CC_DESIGN_PERSON_AND_ORGANIZATION_ASSIGNMENT ( #392, #391, ( #393 ) ) ;
#391 = PERSON_AND_ORGANIZATION_ROLE ( 'classification_officer' ) ;
#392 = PERSON_AND_ORGANIZATION ( #335, #334 ) ;
#393 = SECURITY_CLASSIFICATION ( '', '', #394 ) ;
#394 = SECURITY_CLASSIFICATION_LEVEL ( 'unclassified' ) ;
#395 = CC_DESIGN_PERSON_AND_ORGANIZATION_ASSIGNMENT ( #397, #396, ( #353 ) ) ;
#396 = PERSON_AND_ORGANIZATION_ROLE ( 'design_supplier' ) ;
#397 = PERSON_AND_ORGANIZATION ( #335, #334 ) ;
#398 = CC_DESIGN_PERSON_AND_ORGANIZATION_ASSIGNMENT ( #341, #399, ( #353 ) ) ;
#399 = PERSON_AND_ORGANIZATION_ROLE ( 'creator' ) ;
#400 =( NAMED_UNIT ( * ) SI_UNIT ( $, .STERADIAN. ) SOLID_ANGLE_UNIT ( ) );
#401 =( NAMED_UNIT ( * ) PLANE_ANGLE_UNIT ( ) SI_UNIT ( $, .RADIAN. ) );
#402 = CARTESIAN_POINT ( 'NONE',  ( 33.14999999999999900, 0.0000000000000000000, -47.00000000000000000 ) ) ;
#403 = DIRECTION ( 'NONE',  ( -1.000000000000000000, 0.0000000000000000000, -0.0000000000000000000 ) ) ;
#404 = DIRECTION ( 'NONE',  ( 0.0000000000000000000, 0.0000000000000000000, -1.000000000000000000 ) ) ;
#405 = CARTESIAN_POINT ( 'NONE',  ( 0.0000000000000000000, 33.14999999999999900, -2.168404344971008900E-016 ) ) ;
#406 = FACE_OUTER_BOUND ( 'NONE', #102, .T. ) ;
#407 = FACE_BOUND ( 'NONE', #87, .T. ) ;
#408 = AXIS2_PLACEMENT_3D ( 'NONE', #324, #323, #322 ) ;
#409 = PLANE ( 'NONE',  #408 ) ;
ENDSEC;
END-ISO-10303-21;
