ISO-10303-21;
HEADER;
FILE_DESCRIPTION (( 'STEP AP203' ),
    '1' );
FILE_NAME ('3D_R1650_48.3x2.6_17351290.STEP',
    '2024-08-03T08:56:10',
    ( '' ),
    ( '' ),
    'SwSTEP 2.0',
    'SolidWorks 2024',
    '' );
FILE_SCHEMA (( 'CONFIG_CONTROL_DESIGN' ));
ENDSEC;

DATA;
#1 = FACE_OUTER_BOUND ( 'NONE', #20, .T. ) ;
#2 = CIRCLE ( 'NONE', #148, 24.14999999999999858 ) ;
#3 = AXIS2_PLACEMENT_3D ( 'NONE', #5, #28, #86 ) ;
#4 = CC_DESIGN_PERSON_AND_ORGANIZATION_ASSIGNMENT ( #245, #165, ( #39 ) ) ;
#5 = CARTESIAN_POINT ( 'NONE',  ( -40.30508652763342070, 0.000000000000000000, -40.30508652763298727 ) ) ;
#6 = CARTESIAN_POINT ( 'NONE',  ( 0.000000000000000000, 0.000000000000000000, 0.000000000000000000 ) ) ;
#7 = APPLICATION_CONTEXT ( 'configuration controlled 3d designs of mechanical parts and assemblies' ) ;
#8 = COORDINATED_UNIVERSAL_TIME_OFFSET ( 1, 0, .AHEAD. ) ;
#9 = FACE_BOUND ( 'NONE', #62, .T. ) ;
#10 = APPROVAL_PERSON_ORGANIZATION ( #14, #16, #168 ) ;
#11 = EDGE_CURVE ( 'NONE', #142, #115, #225, .T. ) ;
#12 = COORDINATED_UNIVERSAL_TIME_OFFSET ( 1, 0, .AHEAD. ) ;
#13 = DIRECTION ( 'NONE',  ( 1.110223024625156540E-16, 0.000000000000000000, 1.000000000000000000 ) ) ;
#14 = PERSON_AND_ORGANIZATION ( #125, #248 ) ;
#15 = CIRCLE ( 'NONE', #189, 32.84999999999999432 ) ;
#16 = APPROVAL ( #93, 'UNSPECIFIED' ) ;
#17 = CALENDAR_DATE ( 2024, 3, 8 ) ;
#18 = DATE_AND_TIME ( #38, #231 ) ;
#19 = ORIENTED_EDGE ( 'NONE', *, *, #113, .T. ) ;
#20 = EDGE_LOOP ( 'NONE', ( #96, #23, #175, #250 ) ) ;
#21 = AXIS2_PLACEMENT_3D ( 'NONE', #82, #65, #199 ) ;
#22 = CC_DESIGN_PERSON_AND_ORGANIZATION_ASSIGNMENT ( #150, #50, ( #119 ) ) ;
#23 = ORIENTED_EDGE ( 'NONE', *, *, #183, .T. ) ;
#24 = CC_DESIGN_APPROVAL ( #136, ( #101 ) ) ;
#25 = DIRECTION ( 'NONE',  ( -0.7071067811865436870, 0.000000000000000000, 0.7071067811865513475 ) ) ;
#26 = DIRECTION ( 'NONE',  ( 0.000000000000000000, 1.000000000000000000, 0.000000000000000000 ) ) ;
#27 = EDGE_LOOP ( 'NONE', ( #19, #75 ) ) ;
#28 = DIRECTION ( 'NONE',  ( -0.7071067811865436870, 0.000000000000000000, 0.7071067811865513475 ) ) ;
#29 = CARTESIAN_POINT ( 'NONE',  ( 0.000000000000000000, 0.000000000000000000, 0.000000000000000000 ) ) ;
#30 =( NAMED_UNIT ( * ) SI_UNIT ( $, .STERADIAN. ) SOLID_ANGLE_UNIT ( ) );
#31 = PRODUCT_DEFINITION ( 'UNKNOWN', '', #101, #157 ) ;
#32 = COORDINATED_UNIVERSAL_TIME_OFFSET ( 1, 0, .AHEAD. ) ;
#33 =( GEOMETRIC_REPRESENTATION_CONTEXT ( 3 ) GLOBAL_UNCERTAINTY_ASSIGNED_CONTEXT ( ( #198 ) ) GLOBAL_UNIT_ASSIGNED_CONTEXT ( ( #207, #131, #30 ) ) REPRESENTATION_CONTEXT ( 'NONE', 'WORKASPACE' ) );
#34 = DIRECTION ( 'NONE',  ( 0.000000000000000000, 0.000000000000000000, 1.000000000000000000 ) ) ;
#35 = PLANE ( 'NONE',  #43 ) ;
#36 = PERSON_AND_ORGANIZATION ( #125, #248 ) ;
#37 = CC_DESIGN_PERSON_AND_ORGANIZATION_ASSIGNMENT ( #56, #182, ( #31 ) ) ;
#38 = CALENDAR_DATE ( 2024, 3, 8 ) ;
#39 = SECURITY_CLASSIFICATION ( '', '', #112 ) ;
#40 = PERSON_AND_ORGANIZATION_ROLE ( 'creator' ) ;
#41 = ORIENTED_EDGE ( 'NONE', *, *, #49, .F. ) ;
#42 = CIRCLE ( 'NONE', #180, 21.54999999999999716 ) ;
#43 = AXIS2_PLACEMENT_3D ( 'NONE', #74, #147, #238 ) ;
#44 = VERTEX_POINT ( 'NONE', #124 ) ;
#45 = DIRECTION ( 'NONE',  ( 0.000000000000000000, 0.000000000000000000, 1.000000000000000000 ) ) ;
#46 = DIRECTION ( 'NONE',  ( 0.000000000000000000, 1.000000000000000000, 0.000000000000000000 ) ) ;
#47 = FACE_OUTER_BOUND ( 'NONE', #211, .T. ) ;
#48 = EDGE_LOOP ( 'NONE', ( #98, #143, #117, #230 ) ) ;
#49 = EDGE_CURVE ( 'NONE', #174, #172, #2, .T. ) ;
#50 = PERSON_AND_ORGANIZATION_ROLE ( 'design_owner' ) ;
#51 = CIRCLE ( 'NONE', #247, 24.14999999999999858 ) ;
#52 = CARTESIAN_POINT ( 'NONE',  ( -56.99999999999999289, 0.000000000000000000, 6.328271240363391492E-15 ) ) ;
#53 = EDGE_CURVE ( 'NONE', #44, #142, #42, .T. ) ;
#54 = CALENDAR_DATE ( 2024, 3, 8 ) ;
#55 = FACE_OUTER_BOUND ( 'NONE', #249, .T. ) ;
#56 = PERSON_AND_ORGANIZATION ( #125, #248 ) ;
#57 = PERSON_AND_ORGANIZATION ( #125, #248 ) ;
#58 = CC_DESIGN_SECURITY_CLASSIFICATION ( #39, ( #101 ) ) ;
#59 = EDGE_CURVE ( 'NONE', #44, #60, #92, .T. ) ;
#60 = VERTEX_POINT ( 'NONE', #251 ) ;
#61 = EDGE_CURVE ( 'NONE', #172, #212, #15, .T. ) ;
#62 = EDGE_LOOP ( 'NONE', ( #176, #244 ) ) ;
#63 = CARTESIAN_POINT ( 'NONE',  ( 0.000000000000000000, 0.000000000000000000, 0.000000000000000000 ) ) ;
#64 = AXIS2_PLACEMENT_3D ( 'NONE', #186, #107, #90 ) ;
#65 = DIRECTION ( 'NONE',  ( 0.000000000000000000, 1.000000000000000000, 0.000000000000000000 ) ) ;
#66 = FACE_OUTER_BOUND ( 'NONE', #48, .T. ) ;
#67 = DIRECTION ( 'NONE',  ( 0.7071067811865512365, 0.000000000000000000, 0.7071067811865437980 ) ) ;
#68 = ADVANCED_FACE ( 'NONE', ( #47 ), #80, .F. ) ;
#69 = APPROVAL_PERSON_ORGANIZATION ( #57, #118, #110 ) ;
#70 = DATE_TIME_ROLE ( 'creation_date' ) ;
#71 = DATE_AND_TIME ( #129, #218 ) ;
#72 = CARTESIAN_POINT ( 'NONE',  ( -32.84999999999998721, 0.000000000000000000, -1.308952946033059624E-14 ) ) ;
#73 = PLANE ( 'NONE',  #64 ) ;
#74 = CARTESIAN_POINT ( 'NONE',  ( -56.99999999999998579, 0.000000000000000000, -1.040834085586084257E-14 ) ) ;
#75 = ORIENTED_EDGE ( 'NONE', *, *, #53, .T. ) ;
#76 = AXIS2_PLACEMENT_3D ( 'NONE', #109, #202, #166 ) ;
#77 = ORIENTED_EDGE ( 'NONE', *, *, #104, .T. ) ;
#78 = LOCAL_TIME ( 10, 56, 10.00000000000000000, #242 ) ;
#79 = ADVANCED_FACE ( 'NONE', ( #1 ), #203, .T. ) ;
#80 = TOROIDAL_SURFACE ( 'NONE', #221, 56.99999999999999289, 21.55000000000000071 ) ;
#81 = VERTEX_POINT ( 'NONE', #155 ) ;
#82 = CARTESIAN_POINT ( 'NONE',  ( 0.000000000000000000, 0.000000000000000000, 0.000000000000000000 ) ) ;
#83 = CARTESIAN_POINT ( 'NONE',  ( -23.22845776197820200, -2.957522019940857930E-15, -23.22845776197796752 ) ) ;
#84 = DIRECTION ( 'NONE',  ( 0.000000000000000000, 1.000000000000000000, 0.000000000000000000 ) ) ;
#85 = AXIS2_PLACEMENT_3D ( 'NONE', #224, #13, #223 ) ;
#86 = DIRECTION ( 'NONE',  ( 0.7071067811865513475, 0.000000000000000000, 0.7071067811865437980 ) ) ;
#87 = CARTESIAN_POINT ( 'NONE',  ( 0.000000000000000000, -2.639113852162546308E-15, 0.000000000000000000 ) ) ;
#88 = CC_DESIGN_PERSON_AND_ORGANIZATION_ASSIGNMENT ( #188, #40, ( #101 ) ) ;
#89 = CALENDAR_DATE ( 2024, 3, 8 ) ;
#90 = DIRECTION ( 'NONE',  ( 0.7071067811865513475, 0.000000000000000000, 0.7071067811865436870 ) ) ;
#91 = APPROVAL_PERSON_ORGANIZATION ( #95, #136, #208 ) ;
#92 = CIRCLE ( 'NONE', #122, 78.54999999999999716 ) ;
#93 = APPROVAL_STATUS ( 'not_yet_approved' ) ;
#94 = DATE_AND_TIME ( #17, #78 ) ;
#95 = PERSON_AND_ORGANIZATION ( #125, #248 ) ;
#96 = ORIENTED_EDGE ( 'NONE', *, *, #154, .T. ) ;
#97 = CIRCLE ( 'NONE', #3, 21.54999999999999716 ) ;
#98 = ORIENTED_EDGE ( 'NONE', *, *, #53, .F. ) ;
#99 = APPLICATION_CONTEXT ( 'configuration controlled 3d designs of mechanical parts and assemblies' ) ;
#100 = DIRECTION ( 'NONE',  ( 0.000000000000000000, 0.000000000000000000, 1.000000000000000000 ) ) ;
#101 = PRODUCT_DEFINITION_FORMATION_WITH_SPECIFIED_SOURCE ( 'ANY', '', #119, .NOT_KNOWN. ) ;
#102 = CARTESIAN_POINT ( 'NONE',  ( -56.99999999999998579, 0.000000000000000000, -1.040834085586084257E-14 ) ) ;
#103 = CARTESIAN_POINT ( 'NONE',  ( -25.06693539306323970, -2.639113852162546308E-15, -25.06693539306296969 ) ) ;
#104 = EDGE_CURVE ( 'NONE', #212, #81, #51, .T. ) ;
#105 = DIRECTION ( 'NONE',  ( -0.7071067811865436870, 0.000000000000000000, 0.7071067811865513475 ) ) ;
#106 = APPLICATION_PROTOCOL_DEFINITION ( 'international standard', 'config_control_design', 1994, #7 ) ;
#107 = DIRECTION ( 'NONE',  ( -0.7071067811865436870, 0.000000000000000000, 0.7071067811865513475 ) ) ;
#108 = DATE_AND_TIME ( #54, #163 ) ;
#109 = CARTESIAN_POINT ( 'NONE',  ( 0.000000000000000000, 0.000000000000000000, 0.000000000000000000 ) ) ;
#110 = APPROVAL_ROLE ( '' ) ;
#111 = DIRECTION ( 'NONE',  ( 0.000000000000000000, 0.000000000000000000, 1.000000000000000000 ) ) ;
#112 = SECURITY_CLASSIFICATION_LEVEL ( 'unclassified' ) ;
#113 = EDGE_CURVE ( 'NONE', #142, #44, #97, .T. ) ;
#114 = APPROVAL_STATUS ( 'not_yet_approved' ) ;
#115 = VERTEX_POINT ( 'NONE', #236 ) ;
#116 = AXIS2_PLACEMENT_3D ( 'NONE', #87, #84, #138 ) ;
#117 = ORIENTED_EDGE ( 'NONE', *, *, #252, .T. ) ;
#118 = APPROVAL ( #206, 'UNSPECIFIED' ) ;
#119 = PRODUCT ( '3D_R1650_48.3x2.6_17351290', '3D_R1650_48.3x2.6_17351290', '', ( #240 ) ) ;
#120 = DIRECTION ( 'NONE',  ( 0.7071067811865513475, 0.000000000000000000, 0.7071067811865437980 ) ) ;
#121 = ORIENTED_EDGE ( 'NONE', *, *, #49, .T. ) ;
#122 = AXIS2_PLACEMENT_3D ( 'NONE', #6, #26, #100 ) ;
#123 = CARTESIAN_POINT ( 'NONE',  ( 0.000000000000000000, 0.000000000000000000, 0.000000000000000000 ) ) ;
#124 = CARTESIAN_POINT ( 'NONE',  ( -55.54323766220359460, 0.000000000000000000, -55.54323766220301195 ) ) ;
#125 = PERSON ( 'UNSPECIFIED', 'UNSPECIFIED', 'UNSPECIFIED', ('UNSPECIFIED'), ('UNSPECIFIED'), ('UNSPECIFIED') ) ;
#126 = DIRECTION ( 'NONE',  ( 1.000000000000000000, 0.000000000000000000, -1.110223024625156540E-16 ) ) ;
#127 = CLOSED_SHELL ( 'NONE', ( #151, #79, #192, #200, #210, #68 ) ) ;
#128 = CIRCLE ( 'NONE', #173, 24.14999999999999858 ) ;
#129 = CALENDAR_DATE ( 2024, 3, 8 ) ;
#130 = DIRECTION ( 'NONE',  ( 1.110223024625156540E-16, 0.000000000000000000, 1.000000000000000000 ) ) ;
#131 =( NAMED_UNIT ( * ) PLANE_ANGLE_UNIT ( ) SI_UNIT ( $, .RADIAN. ) );
#132 = PERSON_AND_ORGANIZATION_ROLE ( 'design_supplier' ) ;
#133 = LOCAL_TIME ( 10, 56, 10.00000000000000000, #8 ) ;
#134 = ORIENTED_EDGE ( 'NONE', *, *, #11, .T. ) ;
#135 = ORIENTED_EDGE ( 'NONE', *, *, #167, .T. ) ;
#136 = APPROVAL ( #114, 'UNSPECIFIED' ) ;
#137 = CARTESIAN_POINT ( 'NONE',  ( 0.000000000000000000, 0.000000000000000000, 0.000000000000000000 ) ) ;
#138 = DIRECTION ( 'NONE',  ( 0.000000000000000000, 0.000000000000000000, 1.000000000000000000 ) ) ;
#139 = CIRCLE ( 'NONE', #149, 81.15000000000000568 ) ;
#140 = AXIS2_PLACEMENT_3D ( 'NONE', #29, #111, #146 ) ;
#141 = DIRECTION ( 'NONE',  ( 0.000000000000000000, 0.000000000000000000, 1.000000000000000000 ) ) ;
#142 = VERTEX_POINT ( 'NONE', #103 ) ;
#143 = ORIENTED_EDGE ( 'NONE', *, *, #59, .T. ) ;
#144 = FACE_BOUND ( 'NONE', #27, .T. ) ;
#145 = PRODUCT_RELATED_PRODUCT_CATEGORY ( 'detail', '', ( #119 ) ) ;
#146 = DIRECTION ( 'NONE',  ( 1.000000000000000000, 0.000000000000000000, 0.000000000000000000 ) ) ;
#147 = DIRECTION ( 'NONE',  ( 1.110223024625156787E-16, 0.000000000000000000, 1.000000000000000000 ) ) ;
#148 = AXIS2_PLACEMENT_3D ( 'NONE', #220, #234, #222 ) ;
#149 = AXIS2_PLACEMENT_3D ( 'NONE', #63, #46, #34 ) ;
#150 = PERSON_AND_ORGANIZATION ( #125, #248 ) ;
#151 = ADVANCED_FACE ( 'NONE', ( #66 ), #216, .F. ) ;
#152 = APPROVAL_DATE_TIME ( #94, #16 ) ;
#153 = ORIENTED_EDGE ( 'NONE', *, *, #243, .T. ) ;
#154 = EDGE_CURVE ( 'NONE', #172, #174, #235, .T. ) ;
#155 = CARTESIAN_POINT ( 'NONE',  ( -81.15000000000000568, 0.000000000000000000, -7.727152251391088890E-15 ) ) ;
#156 = CARTESIAN_POINT ( 'NONE',  ( -57.38171529328863585, 0.000000000000000000, -57.38171529328803189 ) ) ;
#157 = DESIGN_CONTEXT ( 'detailed design', #99, 'design' ) ;
#158 = CARTESIAN_POINT ( 'NONE',  ( 0.000000000000000000, -2.957522019940857930E-15, 0.000000000000000000 ) ) ;
#159 = CIRCLE ( 'NONE', #85, 21.55000000000000071 ) ;
#160 = PRODUCT_DEFINITION_SHAPE ( 'NONE', 'NONE',  #31 ) ;
#161 = DIRECTION ( 'NONE',  ( 0.000000000000000000, 0.000000000000000000, 1.000000000000000000 ) ) ;
#162 = DATE_AND_TIME ( #89, #133 ) ;
#163 = LOCAL_TIME ( 10, 56, 10.00000000000000000, #12 ) ;
#164 = CC_DESIGN_PERSON_AND_ORGANIZATION_ASSIGNMENT ( #36, #132, ( #101 ) ) ;
#165 = PERSON_AND_ORGANIZATION_ROLE ( 'classification_officer' ) ;
#166 = DIRECTION ( 'NONE',  ( 0.000000000000000000, 0.000000000000000000, 1.000000000000000000 ) ) ;
#167 = EDGE_CURVE ( 'NONE', #81, #212, #128, .T. ) ;
#168 = APPROVAL_ROLE ( '' ) ;
#169 = FACE_OUTER_BOUND ( 'NONE', #171, .T. ) ;
#170 = MANIFOLD_SOLID_BREP ( 'Wandung1', #127 ) ;
#171 = EDGE_LOOP ( 'NONE', ( #219, #41 ) ) ;
#172 = VERTEX_POINT ( 'NONE', #83 ) ;
#173 = AXIS2_PLACEMENT_3D ( 'NONE', #102, #177, #253 ) ;
#174 = VERTEX_POINT ( 'NONE', #156 ) ;
#175 = ORIENTED_EDGE ( 'NONE', *, *, #104, .F. ) ;
#176 = ORIENTED_EDGE ( 'NONE', *, *, #243, .F. ) ;
#177 = DIRECTION ( 'NONE',  ( 1.110223024625156540E-16, 0.000000000000000000, 1.000000000000000000 ) ) ;
#178 = DIRECTION ( 'NONE',  ( 1.000000000000000000, 0.000000000000000000, -1.110223024625156787E-16 ) ) ;
#179 = DIRECTION ( 'NONE',  ( 1.110223024625156540E-16, 0.000000000000000000, 1.000000000000000000 ) ) ;
#180 = AXIS2_PLACEMENT_3D ( 'NONE', #196, #105, #120 ) ;
#181 = CIRCLE ( 'NONE', #226, 21.55000000000000071 ) ;
#182 = PERSON_AND_ORGANIZATION_ROLE ( 'creator' ) ;
#183 = EDGE_CURVE ( 'NONE', #174, #81, #139, .T. ) ;
#184 = ADVANCED_BREP_SHAPE_REPRESENTATION ( '3D_R1650_48.3x2.6_17351290', ( #170, #140 ), #33 ) ;
#185 = TOROIDAL_SURFACE ( 'NONE', #76, 56.99999999999999289, 24.14999999999999858 ) ;
#186 = CARTESIAN_POINT ( 'NONE',  ( -40.30508652763341360, 0.000000000000000000, -40.30508652763299438 ) ) ;
#187 = DATE_TIME_ROLE ( 'classification_date' ) ;
#188 = PERSON_AND_ORGANIZATION ( #125, #248 ) ;
#189 = AXIS2_PLACEMENT_3D ( 'NONE', #158, #217, #161 ) ;
#190 = COORDINATED_UNIVERSAL_TIME_OFFSET ( 1, 0, .AHEAD. ) ;
#191 = ORIENTED_EDGE ( 'NONE', *, *, #183, .F. ) ;
#192 = ADVANCED_FACE ( 'NONE', ( #55 ), #185, .T. ) ;
#193 = AXIS2_PLACEMENT_3D ( 'NONE', #123, #215, #45 ) ;
#194 = ORIENTED_EDGE ( 'NONE', *, *, #167, .F. ) ;
#195 = CARTESIAN_POINT ( 'NONE',  ( -40.30508652763341360, 0.000000000000000000, -40.30508652763299438 ) ) ;
#196 = CARTESIAN_POINT ( 'NONE',  ( -40.30508652763342070, 0.000000000000000000, -40.30508652763298727 ) ) ;
#197 = DIRECTION ( 'NONE',  ( 0.000000000000000000, 1.000000000000000000, 0.000000000000000000 ) ) ;
#198 = UNCERTAINTY_MEASURE_WITH_UNIT (LENGTH_MEASURE( 1.000000000000000082E-05 ), #207, 'distance_accuracy_value', 'NONE');
#199 = DIRECTION ( 'NONE',  ( 0.000000000000000000, 0.000000000000000000, 1.000000000000000000 ) ) ;
#200 = ADVANCED_FACE ( 'NONE', ( #9, #205 ), #35, .T. ) ;
#201 = ORIENTED_EDGE ( 'NONE', *, *, #59, .F. ) ;
#202 = DIRECTION ( 'NONE',  ( 0.000000000000000000, 1.000000000000000000, 0.000000000000000000 ) ) ;
#203 = TOROIDAL_SURFACE ( 'NONE', #21, 56.99999999999999289, 24.14999999999999858 ) ;
#204 = AXIS2_PLACEMENT_3D ( 'NONE', #195, #25, #67 ) ;
#205 = FACE_OUTER_BOUND ( 'NONE', #214, .T. ) ;
#206 = APPROVAL_STATUS ( 'not_yet_approved' ) ;
#207 =( LENGTH_UNIT ( ) NAMED_UNIT ( * ) SI_UNIT ( .MILLI., .METRE. ) );
#208 = APPROVAL_ROLE ( '' ) ;
#209 = CC_DESIGN_APPROVAL ( #118, ( #39 ) ) ;
#210 = ADVANCED_FACE ( 'NONE', ( #144, #169 ), #73, .F. ) ;
#211 = EDGE_LOOP ( 'NONE', ( #201, #246, #134, #153 ) ) ;
#212 = VERTEX_POINT ( 'NONE', #72 ) ;
#213 = CC_DESIGN_DATE_AND_TIME_ASSIGNMENT ( #108, #187, ( #39 ) ) ;
#214 = EDGE_LOOP ( 'NONE', ( #77, #135 ) ) ;
#215 = DIRECTION ( 'NONE',  ( 0.000000000000000000, 1.000000000000000000, 0.000000000000000000 ) ) ;
#216 = TOROIDAL_SURFACE ( 'NONE', #193, 56.99999999999999289, 21.55000000000000071 ) ;
#217 = DIRECTION ( 'NONE',  ( 0.000000000000000000, 1.000000000000000000, 0.000000000000000000 ) ) ;
#218 = LOCAL_TIME ( 10, 56, 10.00000000000000000, #32 ) ;
#219 = ORIENTED_EDGE ( 'NONE', *, *, #154, .F. ) ;
#220 = CARTESIAN_POINT ( 'NONE',  ( -40.30508652763341360, 0.000000000000000000, -40.30508652763299438 ) ) ;
#221 = AXIS2_PLACEMENT_3D ( 'NONE', #137, #197, #141 ) ;
#222 = DIRECTION ( 'NONE',  ( 0.7071067811865512365, 0.000000000000000000, 0.7071067811865437980 ) ) ;
#223 = DIRECTION ( 'NONE',  ( 1.000000000000000000, 0.000000000000000000, -1.110223024625156540E-16 ) ) ;
#224 = CARTESIAN_POINT ( 'NONE',  ( -56.99999999999999289, 0.000000000000000000, 6.328271240363391492E-15 ) ) ;
#225 = CIRCLE ( 'NONE', #116, 35.44999999999999574 ) ;
#226 = AXIS2_PLACEMENT_3D ( 'NONE', #52, #130, #126 ) ;
#227 = APPROVAL_DATE_TIME ( #18, #136 ) ;
#228 = APPLICATION_PROTOCOL_DEFINITION ( 'international standard', 'config_control_design', 1994, #99 ) ;
#229 = CC_DESIGN_DATE_AND_TIME_ASSIGNMENT ( #162, #70, ( #31 ) ) ;
#230 = ORIENTED_EDGE ( 'NONE', *, *, #11, .F. ) ;
#231 = LOCAL_TIME ( 10, 56, 10.00000000000000000, #190 ) ;
#232 = ORIENTED_EDGE ( 'NONE', *, *, #61, .T. ) ;
#233 = CARTESIAN_POINT ( 'NONE',  ( -56.99999999999998579, 0.000000000000000000, -1.040834085586084257E-14 ) ) ;
#234 = DIRECTION ( 'NONE',  ( -0.7071067811865436870, 0.000000000000000000, 0.7071067811865513475 ) ) ;
#235 = CIRCLE ( 'NONE', #204, 24.14999999999999858 ) ;
#236 = CARTESIAN_POINT ( 'NONE',  ( -35.44999999999999574, 0.000000000000000000, 3.935740622296179462E-15 ) ) ;
#237 = CC_DESIGN_APPROVAL ( #16, ( #31 ) ) ;
#238 = DIRECTION ( 'NONE',  ( 1.000000000000000000, 0.000000000000000000, -1.110223024625156787E-16 ) ) ;
#239 = APPROVAL_DATE_TIME ( #71, #118 ) ;
#240 = MECHANICAL_CONTEXT ( 'NONE', #7, 'mechanical' ) ;
#241 = SHAPE_DEFINITION_REPRESENTATION ( #160, #184 ) ;
#242 = COORDINATED_UNIVERSAL_TIME_OFFSET ( 1, 0, .AHEAD. ) ;
#243 = EDGE_CURVE ( 'NONE', #115, #60, #159, .T. ) ;
#244 = ORIENTED_EDGE ( 'NONE', *, *, #252, .F. ) ;
#245 = PERSON_AND_ORGANIZATION ( #125, #248 ) ;
#246 = ORIENTED_EDGE ( 'NONE', *, *, #113, .F. ) ;
#247 = AXIS2_PLACEMENT_3D ( 'NONE', #233, #179, #178 ) ;
#248 = ORGANIZATION ( 'UNSPECIFIED', 'UNSPECIFIED', '' ) ;
#249 = EDGE_LOOP ( 'NONE', ( #191, #121, #232, #194 ) ) ;
#250 = ORIENTED_EDGE ( 'NONE', *, *, #61, .F. ) ;
#251 = CARTESIAN_POINT ( 'NONE',  ( -78.54999999999999716, 0.000000000000000000, 8.720801858430604309E-15 ) ) ;
#252 = EDGE_CURVE ( 'NONE', #60, #115, #181, .T. ) ;
#253 = DIRECTION ( 'NONE',  ( 1.000000000000000000, 0.000000000000000000, -1.110223024625156787E-16 ) ) ;
ENDSEC;
END-ISO-10303-21;
