ISO-10303-21;
HEADER;
FILE_DESCRIPTION (( 'STEP AP203' ),
    '1' );
FILE_NAME ('3D_R169-K_33-13_17325163.STEP',
    '2024-07-11T10:17:51',
    ( '' ),
    ( '' ),
    'SwSTEP 2.0',
    'SolidWorks 2024',
    '' );
FILE_SCHEMA (( 'CONFIG_CONTROL_DESIGN' ));
ENDSEC;

DATA;
#1 = DIRECTION ( 'NONE',  ( 0.000000000000000000, 0.000000000000000000, -1.000000000000000000 ) ) ;
#2 = DIRECTION ( 'NONE',  ( 0.000000000000000000, 0.000000000000000000, -1.000000000000000000 ) ) ;
#3 = ORIENTED_EDGE ( 'NONE', *, *, #176, .F. ) ;
#4 =( LENGTH_UNIT ( ) NAMED_UNIT ( * ) SI_UNIT ( .MILLI., .METRE. ) );
#5 = ORIENTED_EDGE ( 'NONE', *, *, #170, .T. ) ;
#6 = APPROVAL_ROLE ( '' ) ;
#7 = VECTOR ( 'NONE', #143, 1000.000000000000227 ) ;
#8 = DATE_AND_TIME ( #175, #60 ) ;
#9 = AXIS2_PLACEMENT_3D ( 'NONE', #83, #242, #222 ) ;
#10 = CC_DESIGN_APPROVAL ( #182, ( #138 ) ) ;
#11 = CARTESIAN_POINT ( 'NONE',  ( 36.00000000000000000, 0.000000000000000000, 0.000000000000000000 ) ) ;
#12 = DIRECTION ( 'NONE',  ( 0.000000000000000000, 0.000000000000000000, 1.000000000000000000 ) ) ;
#13 = EDGE_CURVE ( 'NONE', #135, #73, #136, .T. ) ;
#14 = PERSON_AND_ORGANIZATION ( #44, #161 ) ;
#15 = AXIS2_PLACEMENT_3D ( 'NONE', #37, #106, #19 ) ;
#16 = LINE ( 'NONE', #85, #7 ) ;
#17 = CONICAL_SURFACE ( 'NONE', #50, 5.209479987657745781, 0.2735237952426599617 ) ;
#18 = CARTESIAN_POINT ( 'NONE',  ( 0.000000000000000000, 0.000000000000000000, 15.18822347032824638 ) ) ;
#19 = DIRECTION ( 'NONE',  ( 0.000000000000000000, 0.000000000000000000, 1.000000000000000000 ) ) ;
#20 = FACE_BOUND ( 'NONE', #208, .T. ) ;
#21 = VERTEX_POINT ( 'NONE', #180 ) ;
#22 = ADVANCED_BREP_SHAPE_REPRESENTATION ( '3D_R169-K_33-13_17325163', ( #27, #122 ), #117 ) ;
#23 = DIRECTION ( 'NONE',  ( 1.000000000000000000, 0.000000000000000000, 0.000000000000000000 ) ) ;
#24 = VECTOR ( 'NONE', #110, 1000.000000000000227 ) ;
#25 = CC_DESIGN_PERSON_AND_ORGANIZATION_ASSIGNMENT ( #62, #137, ( #33 ) ) ;
#26 = PERSON_AND_ORGANIZATION ( #44, #161 ) ;
#27 = MANIFOLD_SOLID_BREP ( 'Wandung2', #193 ) ;
#28 = CONICAL_SURFACE ( 'NONE', #111, 6.750000000000000000, 0.2735237952426599617 ) ;
#29 = VECTOR ( 'NONE', #146, 1000.000000000000227 ) ;
#30 = CARTESIAN_POINT ( 'NONE',  ( 35.56779855209286012, 0.000000000000000000, 0.000000000000000000 ) ) ;
#31 = ADVANCED_FACE ( 'NONE', ( #52 ), #209, .T. ) ;
#32 = ORIENTED_EDGE ( 'NONE', *, *, #190, .T. ) ;
#33 = PRODUCT ( '3D_R169-K_33-13_17325163', '3D_R169-K_33-13_17325163', '', ( #241 ) ) ;
#34 = FACE_BOUND ( 'NONE', #148, .T. ) ;
#35 = DATE_TIME_ROLE ( 'classification_date' ) ;
#36 = CARTESIAN_POINT ( 'NONE',  ( 36.00000000000000000, 0.000000000000000000, 5.088223470328243181 ) ) ;
#37 = CARTESIAN_POINT ( 'NONE',  ( 35.56779855209286012, 0.000000000000000000, 0.000000000000000000 ) ) ;
#38 = EDGE_LOOP ( 'NONE', ( #133, #247, #78, #206 ) ) ;
#39 = CARTESIAN_POINT ( 'NONE',  ( 35.56779855209286012, 6.379772992107251973E-16, -5.209479987657745781 ) ) ;
#40 = ORIENTED_EDGE ( 'NONE', *, *, #95, .T. ) ;
#41 = CIRCLE ( 'NONE', #155, 6.750000000000000000 ) ;
#42 = CIRCLE ( 'NONE', #107, 16.85000000000000142 ) ;
#43 = CARTESIAN_POINT ( 'NONE',  ( 0.000000000000000000, 0.000000000000000000, 0.000000000000000000 ) ) ;
#44 = PERSON ( 'UNSPECIFIED', 'UNSPECIFIED', 'UNSPECIFIED', ('UNSPECIFIED'), ('UNSPECIFIED'), ('UNSPECIFIED') ) ;
#45 = APPROVAL_STATUS ( 'not_yet_approved' ) ;
#46 = AXIS2_PLACEMENT_3D ( 'NONE', #228, #131, #90 ) ;
#47 = PERSON_AND_ORGANIZATION_ROLE ( 'creator' ) ;
#48 = PERSON_AND_ORGANIZATION ( #44, #161 ) ;
#49 = COORDINATED_UNIVERSAL_TIME_OFFSET ( 1, 0, .AHEAD. ) ;
#50 = AXIS2_PLACEMENT_3D ( 'NONE', #30, #164, #12 ) ;
#51 = APPROVAL_PERSON_ORGANIZATION ( #235, #212, #99 ) ;
#52 = FACE_OUTER_BOUND ( 'NONE', #38, .T. ) ;
#53 = APPLICATION_CONTEXT ( 'configuration controlled 3d designs of mechanical parts and assemblies' ) ;
#54 = LINE ( 'NONE', #128, #141 ) ;
#55 = APPROVAL_PERSON_ORGANIZATION ( #14, #182, #130 ) ;
#56 = FACE_OUTER_BOUND ( 'NONE', #153, .T. ) ;
#57 = CARTESIAN_POINT ( 'NONE',  ( 0.000000000000000000, 0.000000000000000000, 0.000000000000000000 ) ) ;
#58 = ADVANCED_FACE ( 'NONE', ( #163 ), #28, .T. ) ;
#59 = CARTESIAN_POINT ( 'NONE',  ( 0.000000000000000000, 0.000000000000000000, 0.000000000000000000 ) ) ;
#60 = LOCAL_TIME ( 12, 17, 51.00000000000000000, #98 ) ;
#61 = DIRECTION ( 'NONE',  ( 0.000000000000000000, 0.000000000000000000, -1.000000000000000000 ) ) ;
#62 = PERSON_AND_ORGANIZATION ( #44, #161 ) ;
#63 = EDGE_CURVE ( 'NONE', #154, #225, #41, .T. ) ;
#64 = CALENDAR_DATE ( 2024, 11, 7 ) ;
#65 = LOCAL_TIME ( 12, 17, 51.00000000000000000, #215 ) ;
#66 = APPROVAL_DATE_TIME ( #100, #162 ) ;
#67 = PERSON_AND_ORGANIZATION ( #44, #161 ) ;
#68 = DIRECTION ( 'NONE',  ( 0.000000000000000000, 0.000000000000000000, -1.000000000000000000 ) ) ;
#69 = DIRECTION ( 'NONE',  ( 0.000000000000000000, 0.000000000000000000, 1.000000000000000000 ) ) ;
#70 =( NAMED_UNIT ( * ) SI_UNIT ( $, .STERADIAN. ) SOLID_ANGLE_UNIT ( ) );
#71 = CIRCLE ( 'NONE', #226, 15.18822347032824460 ) ;
#72 = ADVANCED_FACE ( 'NONE', ( #196 ), #17, .F. ) ;
#73 = VERTEX_POINT ( 'NONE', #140 ) ;
#74 = CARTESIAN_POINT ( 'NONE',  ( 0.000000000000000000, 0.000000000000000000, 0.000000000000000000 ) ) ;
#75 = FACE_OUTER_BOUND ( 'NONE', #92, .T. ) ;
#76 = CIRCLE ( 'NONE', #116, 16.85000000000000142 ) ;
#77 = EDGE_LOOP ( 'NONE', ( #114, #3, #109, #213 ) ) ;
#78 = ORIENTED_EDGE ( 'NONE', *, *, #201, .T. ) ;
#79 = ORIENTED_EDGE ( 'NONE', *, *, #201, .F. ) ;
#80 = CALENDAR_DATE ( 2024, 11, 7 ) ;
#81 = ADVANCED_FACE ( 'NONE', ( #34, #104 ), #221, .T. ) ;
#82 = APPROVAL_PERSON_ORGANIZATION ( #237, #162, #6 ) ;
#83 = CARTESIAN_POINT ( 'NONE',  ( 36.00000000000000000, 0.000000000000000000, 0.000000000000000000 ) ) ;
#84 = DIRECTION ( 'NONE',  ( 1.000000000000000000, 0.000000000000000000, 0.000000000000000000 ) ) ;
#85 = CARTESIAN_POINT ( 'NONE',  ( 35.56779855209286012, 0.000000000000000000, 5.209479987657745781 ) ) ;
#86 = PRODUCT_DEFINITION_SHAPE ( 'NONE', 'NONE',  #195 ) ;
#87 = CALENDAR_DATE ( 2024, 11, 7 ) ;
#88 = CONICAL_SURFACE ( 'NONE', #15, 5.209479987657745781, 0.2735237952426599617 ) ;
#89 = CARTESIAN_POINT ( 'NONE',  ( 36.00000000000000000, 0.000000000000000000, 0.000000000000000000 ) ) ;
#90 = DIRECTION ( 'NONE',  ( 0.000000000000000000, 0.000000000000000000, -1.000000000000000000 ) ) ;
#91 = CARTESIAN_POINT ( 'NONE',  ( 0.000000000000000000, 3.095294784844934972E-15, -16.85000000000000142 ) ) ;
#92 = EDGE_LOOP ( 'NONE', ( #168, #79 ) ) ;
#93 = PRODUCT_DEFINITION_FORMATION_WITH_SPECIFIED_SOURCE ( 'ANY', '', #33, .NOT_KNOWN. ) ;
#94 = ORIENTED_EDGE ( 'NONE', *, *, #13, .T. ) ;
#95 = EDGE_CURVE ( 'NONE', #135, #171, #16, .T. ) ;
#96 = APPLICATION_PROTOCOL_DEFINITION ( 'international standard', 'config_control_design', 1994, #174 ) ;
#97 = CC_DESIGN_APPROVAL ( #162, ( #195 ) ) ;
#98 = COORDINATED_UNIVERSAL_TIME_OFFSET ( 1, 0, .AHEAD. ) ;
#99 = APPROVAL_ROLE ( '' ) ;
#100 = DATE_AND_TIME ( #80, #203 ) ;
#101 = EDGE_LOOP ( 'NONE', ( #113, #120 ) ) ;
#102 = DIRECTION ( 'NONE',  ( -1.000000000000000000, -0.000000000000000000, -0.000000000000000000 ) ) ;
#103 = DATE_AND_TIME ( #199, #239 ) ;
#104 = FACE_OUTER_BOUND ( 'NONE', #101, .T. ) ;
#105 = APPROVAL_DATE_TIME ( #197, #182 ) ;
#106 = DIRECTION ( 'NONE',  ( -1.000000000000000000, -0.000000000000000000, -0.000000000000000000 ) ) ;
#107 = AXIS2_PLACEMENT_3D ( 'NONE', #74, #149, #108 ) ;
#108 = DIRECTION ( 'NONE',  ( 0.000000000000000000, 0.000000000000000000, -1.000000000000000000 ) ) ;
#109 = ORIENTED_EDGE ( 'NONE', *, *, #115, .T. ) ;
#110 = DIRECTION ( 'NONE',  ( -0.9628250077139086649, 3.308088248539507948E-17, -0.2701259049419577618 ) ) ;
#111 = AXIS2_PLACEMENT_3D ( 'NONE', #142, #102, #69 ) ;
#112 = ORIENTED_EDGE ( 'NONE', *, *, #214, .F. ) ;
#113 = ORIENTED_EDGE ( 'NONE', *, *, #176, .T. ) ;
#114 = ORIENTED_EDGE ( 'NONE', *, *, #132, .F. ) ;
#115 = EDGE_CURVE ( 'NONE', #225, #211, #54, .T. ) ;
#116 = AXIS2_PLACEMENT_3D ( 'NONE', #165, #183, #2 ) ;
#117 =( GEOMETRIC_REPRESENTATION_CONTEXT ( 3 ) GLOBAL_UNCERTAINTY_ASSIGNED_CONTEXT ( ( #249 ) ) GLOBAL_UNIT_ASSIGNED_CONTEXT ( ( #4, #200, #70 ) ) REPRESENTATION_CONTEXT ( 'NONE', 'WORKASPACE' ) );
#118 = APPLICATION_PROTOCOL_DEFINITION ( 'international standard', 'config_control_design', 1994, #53 ) ;
#119 = PERSON_AND_ORGANIZATION_ROLE ( 'design_supplier' ) ;
#120 = ORIENTED_EDGE ( 'NONE', *, *, #63, .T. ) ;
#121 = AXIS2_PLACEMENT_3D ( 'NONE', #124, #194, #181 ) ;
#122 = AXIS2_PLACEMENT_3D ( 'NONE', #43, #158, #23 ) ;
#123 = AXIS2_PLACEMENT_3D ( 'NONE', #59, #172, #129 ) ;
#124 = CARTESIAN_POINT ( 'NONE',  ( 36.00000000000000000, 0.000000000000000000, 0.000000000000000000 ) ) ;
#125 = EDGE_CURVE ( 'NONE', #211, #178, #76, .T. ) ;
#126 = DIRECTION ( 'NONE',  ( 1.000000000000000000, 0.000000000000000000, 0.000000000000000000 ) ) ;
#127 = DESIGN_CONTEXT ( 'detailed design', #174, 'design' ) ;
#128 = CARTESIAN_POINT ( 'NONE',  ( 36.00000000000000000, 0.000000000000000000, 6.750000000000000000 ) ) ;
#129 = DIRECTION ( 'NONE',  ( 0.000000000000000000, 0.000000000000000000, -1.000000000000000000 ) ) ;
#130 = APPROVAL_ROLE ( '' ) ;
#131 = DIRECTION ( 'NONE',  ( 1.000000000000000000, 0.000000000000000000, 0.000000000000000000 ) ) ;
#132 = EDGE_CURVE ( 'NONE', #154, #178, #248, .T. ) ;
#133 = ORIENTED_EDGE ( 'NONE', *, *, #63, .F. ) ;
#134 = CARTESIAN_POINT ( 'NONE',  ( 36.00000000000000000, 4.133182947122317167E-16, 6.750000000000000000 ) ) ;
#135 = VERTEX_POINT ( 'NONE', #36 ) ;
#136 = CIRCLE ( 'NONE', #159, 5.088223470328243181 ) ;
#137 = PERSON_AND_ORGANIZATION_ROLE ( 'design_owner' ) ;
#138 = SECURITY_CLASSIFICATION ( '', '', #192 ) ;
#139 = ORIENTED_EDGE ( 'NONE', *, *, #170, .F. ) ;
#140 = CARTESIAN_POINT ( 'NONE',  ( 36.00000000000000000, 1.241574292197805525E-15, -5.088223470328243181 ) ) ;
#141 = VECTOR ( 'NONE', #198, 1000.000000000000227 ) ;
#142 = CARTESIAN_POINT ( 'NONE',  ( 36.00000000000000000, 0.000000000000000000, 0.000000000000000000 ) ) ;
#143 = DIRECTION ( 'NONE',  ( -0.9628250077139086649, 0.000000000000000000, 0.2701259049419577618 ) ) ;
#144 = EDGE_LOOP ( 'NONE', ( #94, #234, #186, #173 ) ) ;
#145 = CC_DESIGN_SECURITY_CLASSIFICATION ( #138, ( #93 ) ) ;
#146 = DIRECTION ( 'NONE',  ( -0.9628250077139086649, 3.308088248539507948E-17, -0.2701259049419577618 ) ) ;
#147 = CC_DESIGN_PERSON_AND_ORGANIZATION_ASSIGNMENT ( #216, #218, ( #93 ) ) ;
#148 = EDGE_LOOP ( 'NONE', ( #188, #139 ) ) ;
#149 = DIRECTION ( 'NONE',  ( 1.000000000000000000, 0.000000000000000000, 0.000000000000000000 ) ) ;
#150 = ADVANCED_FACE ( 'NONE', ( #56 ), #88, .F. ) ;
#151 = ORIENTED_EDGE ( 'NONE', *, *, #214, .T. ) ;
#152 = PLANE ( 'NONE',  #204 ) ;
#153 = EDGE_LOOP ( 'NONE', ( #202, #5, #40, #112 ) ) ;
#154 = VERTEX_POINT ( 'NONE', #205 ) ;
#155 = AXIS2_PLACEMENT_3D ( 'NONE', #220, #126, #68 ) ;
#156 = DATE_AND_TIME ( #64, #65 ) ;
#157 = PRODUCT_RELATED_PRODUCT_CATEGORY ( 'detail', '', ( #33 ) ) ;
#158 = DIRECTION ( 'NONE',  ( 0.000000000000000000, 0.000000000000000000, 1.000000000000000000 ) ) ;
#159 = AXIS2_PLACEMENT_3D ( 'NONE', #11, #84, #244 ) ;
#160 = AXIS2_PLACEMENT_3D ( 'NONE', #89, #167, #229 ) ;
#161 = ORGANIZATION ( 'UNSPECIFIED', 'UNSPECIFIED', '' ) ;
#162 = APPROVAL ( #191, 'UNSPECIFIED' ) ;
#163 = FACE_OUTER_BOUND ( 'NONE', #77, .T. ) ;
#164 = DIRECTION ( 'NONE',  ( -1.000000000000000000, -0.000000000000000000, -0.000000000000000000 ) ) ;
#165 = CARTESIAN_POINT ( 'NONE',  ( 0.000000000000000000, 0.000000000000000000, 0.000000000000000000 ) ) ;
#166 = CC_DESIGN_DATE_AND_TIME_ASSIGNMENT ( #103, #35, ( #138 ) ) ;
#167 = DIRECTION ( 'NONE',  ( 1.000000000000000000, 0.000000000000000000, 0.000000000000000000 ) ) ;
#168 = ORIENTED_EDGE ( 'NONE', *, *, #125, .F. ) ;
#169 = DIRECTION ( 'NONE',  ( 1.000000000000000000, 0.000000000000000000, 0.000000000000000000 ) ) ;
#170 = EDGE_CURVE ( 'NONE', #73, #135, #217, .T. ) ;
#171 = VERTEX_POINT ( 'NONE', #18 ) ;
#172 = DIRECTION ( 'NONE',  ( 1.000000000000000000, 0.000000000000000000, 0.000000000000000000 ) ) ;
#173 = ORIENTED_EDGE ( 'NONE', *, *, #95, .F. ) ;
#174 = APPLICATION_CONTEXT ( 'configuration controlled 3d designs of mechanical parts and assemblies' ) ;
#175 = CALENDAR_DATE ( 2024, 11, 7 ) ;
#176 = EDGE_CURVE ( 'NONE', #225, #154, #238, .T. ) ;
#177 = APPROVAL_DATE_TIME ( #8, #212 ) ;
#178 = VERTEX_POINT ( 'NONE', #91 ) ;
#179 = CC_DESIGN_PERSON_AND_ORGANIZATION_ASSIGNMENT ( #26, #47, ( #195 ) ) ;
#180 = CARTESIAN_POINT ( 'NONE',  ( 0.000000000000000000, 1.860020925767219325E-15, -15.18822347032824638 ) ) ;
#181 = DIRECTION ( 'NONE',  ( 0.000000000000000000, 0.000000000000000000, -1.000000000000000000 ) ) ;
#182 = APPROVAL ( #243, 'UNSPECIFIED' ) ;
#183 = DIRECTION ( 'NONE',  ( 1.000000000000000000, 0.000000000000000000, 0.000000000000000000 ) ) ;
#184 = CARTESIAN_POINT ( 'NONE',  ( 0.000000000000000000, -1.031764928281645122E-15, 16.85000000000000142 ) ) ;
#185 = CC_DESIGN_PERSON_AND_ORGANIZATION_ASSIGNMENT ( #67, #219, ( #138 ) ) ;
#186 = ORIENTED_EDGE ( 'NONE', *, *, #190, .F. ) ;
#187 = LOCAL_TIME ( 12, 17, 51.00000000000000000, #224 ) ;
#188 = ORIENTED_EDGE ( 'NONE', *, *, #13, .F. ) ;
#189 = CC_DESIGN_PERSON_AND_ORGANIZATION_ASSIGNMENT ( #48, #119, ( #93 ) ) ;
#190 = EDGE_CURVE ( 'NONE', #171, #21, #71, .T. ) ;
#191 = APPROVAL_STATUS ( 'not_yet_approved' ) ;
#192 = SECURITY_CLASSIFICATION_LEVEL ( 'unclassified' ) ;
#193 = CLOSED_SHELL ( 'NONE', ( #72, #31, #81, #223, #58, #150 ) ) ;
#194 = DIRECTION ( 'NONE',  ( 1.000000000000000000, 0.000000000000000000, 0.000000000000000000 ) ) ;
#195 = PRODUCT_DEFINITION ( 'UNKNOWN', '', #93, #127 ) ;
#196 = FACE_OUTER_BOUND ( 'NONE', #144, .T. ) ;
#197 = DATE_AND_TIME ( #87, #187 ) ;
#198 = DIRECTION ( 'NONE',  ( -0.9628250077139086649, 0.000000000000000000, 0.2701259049419577618 ) ) ;
#199 = CALENDAR_DATE ( 2024, 11, 7 ) ;
#200 =( NAMED_UNIT ( * ) PLANE_ANGLE_UNIT ( ) SI_UNIT ( $, .RADIAN. ) );
#201 = EDGE_CURVE ( 'NONE', #178, #211, #42, .T. ) ;
#202 = ORIENTED_EDGE ( 'NONE', *, *, #245, .F. ) ;
#203 = LOCAL_TIME ( 12, 17, 51.00000000000000000, #236 ) ;
#204 = AXIS2_PLACEMENT_3D ( 'NONE', #232, #233, #61 ) ;
#205 = CARTESIAN_POINT ( 'NONE',  ( 36.00000000000000000, 4.133182947122317167E-16, -6.750000000000000000 ) ) ;
#206 = ORIENTED_EDGE ( 'NONE', *, *, #115, .F. ) ;
#207 = LINE ( 'NONE', #39, #24 ) ;
#208 = EDGE_LOOP ( 'NONE', ( #32, #151 ) ) ;
#209 = CONICAL_SURFACE ( 'NONE', #9, 6.750000000000000000, 0.2735237952426599617 ) ;
#210 = CIRCLE ( 'NONE', #123, 15.18822347032824460 ) ;
#211 = VERTEX_POINT ( 'NONE', #184 ) ;
#212 = APPROVAL ( #45, 'UNSPECIFIED' ) ;
#213 = ORIENTED_EDGE ( 'NONE', *, *, #125, .T. ) ;
#214 = EDGE_CURVE ( 'NONE', #21, #171, #210, .T. ) ;
#215 = COORDINATED_UNIVERSAL_TIME_OFFSET ( 1, 0, .AHEAD. ) ;
#216 = PERSON_AND_ORGANIZATION ( #44, #161 ) ;
#217 = CIRCLE ( 'NONE', #46, 5.088223470328243181 ) ;
#218 = PERSON_AND_ORGANIZATION_ROLE ( 'creator' ) ;
#219 = PERSON_AND_ORGANIZATION_ROLE ( 'classification_officer' ) ;
#220 = CARTESIAN_POINT ( 'NONE',  ( 36.00000000000000000, 0.000000000000000000, 0.000000000000000000 ) ) ;
#221 = PLANE ( 'NONE',  #121 ) ;
#222 = DIRECTION ( 'NONE',  ( 0.000000000000000000, 0.000000000000000000, 1.000000000000000000 ) ) ;
#223 = ADVANCED_FACE ( 'NONE', ( #20, #75 ), #152, .F. ) ;
#224 = COORDINATED_UNIVERSAL_TIME_OFFSET ( 1, 0, .AHEAD. ) ;
#225 = VERTEX_POINT ( 'NONE', #134 ) ;
#226 = AXIS2_PLACEMENT_3D ( 'NONE', #57, #169, #1 ) ;
#227 = CARTESIAN_POINT ( 'NONE',  ( 36.00000000000000000, 8.266365894244634333E-16, -6.750000000000000000 ) ) ;
#228 = CARTESIAN_POINT ( 'NONE',  ( 36.00000000000000000, 0.000000000000000000, 0.000000000000000000 ) ) ;
#229 = DIRECTION ( 'NONE',  ( 0.000000000000000000, 0.000000000000000000, -1.000000000000000000 ) ) ;
#230 = CC_DESIGN_APPROVAL ( #212, ( #93 ) ) ;
#231 = CC_DESIGN_DATE_AND_TIME_ASSIGNMENT ( #156, #240, ( #195 ) ) ;
#232 = CARTESIAN_POINT ( 'NONE',  ( 0.000000000000000000, 0.000000000000000000, 0.000000000000000000 ) ) ;
#233 = DIRECTION ( 'NONE',  ( 1.000000000000000000, 0.000000000000000000, 0.000000000000000000 ) ) ;
#234 = ORIENTED_EDGE ( 'NONE', *, *, #245, .T. ) ;
#235 = PERSON_AND_ORGANIZATION ( #44, #161 ) ;
#236 = COORDINATED_UNIVERSAL_TIME_OFFSET ( 1, 0, .AHEAD. ) ;
#237 = PERSON_AND_ORGANIZATION ( #44, #161 ) ;
#238 = CIRCLE ( 'NONE', #160, 6.750000000000000000 ) ;
#239 = LOCAL_TIME ( 12, 17, 51.00000000000000000, #49 ) ;
#240 = DATE_TIME_ROLE ( 'creation_date' ) ;
#241 = MECHANICAL_CONTEXT ( 'NONE', #53, 'mechanical' ) ;
#242 = DIRECTION ( 'NONE',  ( -1.000000000000000000, -0.000000000000000000, -0.000000000000000000 ) ) ;
#243 = APPROVAL_STATUS ( 'not_yet_approved' ) ;
#244 = DIRECTION ( 'NONE',  ( 0.000000000000000000, 0.000000000000000000, -1.000000000000000000 ) ) ;
#245 = EDGE_CURVE ( 'NONE', #73, #21, #207, .T. ) ;
#246 = SHAPE_DEFINITION_REPRESENTATION ( #86, #22 ) ;
#247 = ORIENTED_EDGE ( 'NONE', *, *, #132, .T. ) ;
#248 = LINE ( 'NONE', #227, #29 ) ;
#249 = UNCERTAINTY_MEASURE_WITH_UNIT (LENGTH_MEASURE( 1.000000000000000082E-05 ), #4, 'distance_accuracy_value', 'NONE');
ENDSEC;
END-ISO-10303-21;
