ISO-10303-21;
HEADER;
FILE_DESCRIPTION (( 'STEP AP203' ),
    '1' );
FILE_NAME ('3D_R243_33.7x3_17386050.STEP',
    '2024-08-06T08:39:01',
    ( '' ),
    ( '' ),
    'SwSTEP 2.0',
    'SolidWorks 2024',
    '' );
FILE_SCHEMA (( 'CONFIG_CONTROL_DESIGN' ));
ENDSEC;

DATA;
#1 = DIRECTION ( 'NONE',  ( 0.000000000000000000, 0.000000000000000000, -1.000000000000000000 ) ) ;
#2 = ADVANCED_BREP_SHAPE_REPRESENTATION ( '3D_R243_33.7x3_17386050', ( #111, #190 ), #132 ) ;
#3 = DIRECTION ( 'NONE',  ( 0.000000000000000000, 1.000000000000000000, 0.000000000000000000 ) ) ;
#4 = DIRECTION ( 'NONE',  ( 0.000000000000000000, 0.000000000000000000, 1.000000000000000000 ) ) ;
#5 = ORIENTED_EDGE ( 'NONE', *, *, #98, .T. ) ;
#6 = APPLICATION_CONTEXT ( 'configuration controlled 3d designs of mechanical parts and assemblies' ) ;
#7 = CALENDAR_DATE ( 2024, 6, 8 ) ;
#8 = EDGE_CURVE ( 'NONE', #120, #57, #172, .T. ) ;
#9 = CALENDAR_DATE ( 2024, 6, 8 ) ;
#10 = APPROVAL_STATUS ( 'not_yet_approved' ) ;
#11 = CC_DESIGN_APPROVAL ( #152, ( #173 ) ) ;
#12 = ORIENTED_EDGE ( 'NONE', *, *, #56, .F. ) ;
#13 = ADVANCED_FACE ( 'NONE', ( #129, #36 ), #244, .T. ) ;
#14 = PERSON_AND_ORGANIZATION_ROLE ( 'creator' ) ;
#15 = ORIENTED_EDGE ( 'NONE', *, *, #146, .F. ) ;
#16 = PRODUCT_DEFINITION_FORMATION_WITH_SPECIFIED_SOURCE ( 'ANY', '', #135, .NOT_KNOWN. ) ;
#17 = APPROVAL ( #142, 'UNSPECIFIED' ) ;
#18 = CARTESIAN_POINT ( 'NONE',  ( 5.737470254005350211E-15, 3.000000000000000000, 46.85000000000000142 ) ) ;
#19 = DIRECTION ( 'NONE',  ( 0.000000000000000000, 1.000000000000000000, 0.000000000000000000 ) ) ;
#20 = EDGE_LOOP ( 'NONE', ( #55, #15, #33, #76 ) ) ;
#21 = CARTESIAN_POINT ( 'NONE',  ( 0.000000000000000000, 0.000000000000000000, 0.000000000000000000 ) ) ;
#22 = CARTESIAN_POINT ( 'NONE',  ( 2.063529856563287483E-15, 3.000000000000000000, 16.84999999999998010 ) ) ;
#23 = CARTESIAN_POINT ( 'NONE',  ( 0.000000000000000000, 0.000000000000000000, 0.000000000000000000 ) ) ;
#24 = PLANE ( 'NONE',  #50 ) ;
#25 = DATE_AND_TIME ( #242, #239 ) ;
#26 = AXIS2_PLACEMENT_3D ( 'NONE', #186, #70, #216 ) ;
#27 = PERSON_AND_ORGANIZATION ( #150, #218 ) ;
#28 = MECHANICAL_CONTEXT ( 'NONE', #245, 'mechanical' ) ;
#29 = CARTESIAN_POINT ( 'NONE',  ( 0.000000000000000000, 0.000000000000000000, -16.84999999999998010 ) ) ;
#30 = COORDINATED_UNIVERSAL_TIME_OFFSET ( 1, 0, .AHEAD. ) ;
#31 = CIRCLE ( 'NONE', #159, 46.85000000000000142 ) ;
#32 = AXIS2_PLACEMENT_3D ( 'NONE', #133, #231, #63 ) ;
#33 = ORIENTED_EDGE ( 'NONE', *, *, #237, .T. ) ;
#34 = CIRCLE ( 'NONE', #145, 46.85000000000000142 ) ;
#35 = DIRECTION ( 'NONE',  ( 0.000000000000000000, -0.000000000000000000, 1.000000000000000000 ) ) ;
#36 = FACE_BOUND ( 'NONE', #201, .T. ) ;
#37 = EDGE_CURVE ( 'NONE', #112, #108, #128, .T. ) ;
#38 = CARTESIAN_POINT ( 'NONE',  ( 0.000000000000000000, 0.000000000000000000, 0.000000000000000000 ) ) ;
#39 = CIRCLE ( 'NONE', #169, 16.84999999999998010 ) ;
#40 = FACE_OUTER_BOUND ( 'NONE', #130, .T. ) ;
#41 = FACE_OUTER_BOUND ( 'NONE', #74, .T. ) ;
#42 = ADVANCED_FACE ( 'NONE', ( #241 ), #191, .F. ) ;
#43 = CIRCLE ( 'NONE', #59, 16.84999999999998010 ) ;
#44 = DIRECTION ( 'NONE',  ( 0.000000000000000000, 1.000000000000000000, 0.000000000000000000 ) ) ;
#45 =( LENGTH_UNIT ( ) NAMED_UNIT ( * ) SI_UNIT ( .MILLI., .METRE. ) );
#46 = CC_DESIGN_DATE_AND_TIME_ASSIGNMENT ( #25, #107, ( #61 ) ) ;
#47 = VERTEX_POINT ( 'NONE', #18 ) ;
#48 = COORDINATED_UNIVERSAL_TIME_OFFSET ( 1, 0, .AHEAD. ) ;
#49 = EDGE_LOOP ( 'NONE', ( #248, #227 ) ) ;
#50 = AXIS2_PLACEMENT_3D ( 'NONE', #180, #3, #78 ) ;
#51 = LOCAL_TIME ( 10, 39, 1.000000000000000000, #48 ) ;
#52 = EDGE_CURVE ( 'NONE', #47, #205, #31, .T. ) ;
#53 = ORIENTED_EDGE ( 'NONE', *, *, #192, .T. ) ;
#54 = AXIS2_PLACEMENT_3D ( 'NONE', #246, #149, #35 ) ;
#55 = ORIENTED_EDGE ( 'NONE', *, *, #86, .F. ) ;
#56 = EDGE_CURVE ( 'NONE', #143, #93, #34, .T. ) ;
#57 = VERTEX_POINT ( 'NONE', #29 ) ;
#58 = AXIS2_PLACEMENT_3D ( 'NONE', #137, #44, #158 ) ;
#59 = AXIS2_PLACEMENT_3D ( 'NONE', #217, #200, #4 ) ;
#60 = FACE_OUTER_BOUND ( 'NONE', #20, .T. ) ;
#61 = PRODUCT_DEFINITION ( 'UNKNOWN', '', #16, #77 ) ;
#62 = DIRECTION ( 'NONE',  ( 0.000000000000000000, 1.000000000000000000, 0.000000000000000000 ) ) ;
#63 = DIRECTION ( 'NONE',  ( 0.000000000000000000, 0.000000000000000000, 1.000000000000000000 ) ) ;
#64 = CARTESIAN_POINT ( 'NONE',  ( 0.000000000000000000, 3.000000000000000000, 0.000000000000000000 ) ) ;
#65 = DATE_TIME_ROLE ( 'classification_date' ) ;
#66 = VECTOR ( 'NONE', #102, 1000.000000000000000 ) ;
#67 = COORDINATED_UNIVERSAL_TIME_OFFSET ( 1, 0, .AHEAD. ) ;
#68 = APPROVAL_ROLE ( '' ) ;
#69 = ADVANCED_FACE ( 'NONE', ( #75 ), #151, .T. ) ;
#70 = DIRECTION ( 'NONE',  ( -0.000000000000000000, -1.000000000000000000, -0.000000000000000000 ) ) ;
#71 = COORDINATED_UNIVERSAL_TIME_OFFSET ( 1, 0, .AHEAD. ) ;
#72 = ADVANCED_FACE ( 'NONE', ( #41, #179 ), #24, .F. ) ;
#73 = ORIENTED_EDGE ( 'NONE', *, *, #82, .T. ) ;
#74 = EDGE_LOOP ( 'NONE', ( #212, #12 ) ) ;
#75 = FACE_OUTER_BOUND ( 'NONE', #109, .T. ) ;
#76 = ORIENTED_EDGE ( 'NONE', *, *, #225, .T. ) ;
#77 = DESIGN_CONTEXT ( 'detailed design', #6, 'design' ) ;
#78 = DIRECTION ( 'NONE',  ( 0.000000000000000000, -0.000000000000000000, 1.000000000000000000 ) ) ;
#79 = AXIS2_PLACEMENT_3D ( 'NONE', #214, #199, #195 ) ;
#80 = DIRECTION ( 'NONE',  ( 0.000000000000000000, 0.000000000000000000, 1.000000000000000000 ) ) ;
#81 = DIRECTION ( 'NONE',  ( 0.000000000000000000, 0.000000000000000000, 1.000000000000000000 ) ) ;
#82 = EDGE_CURVE ( 'NONE', #112, #120, #127, .T. ) ;
#83 = CARTESIAN_POINT ( 'NONE',  ( 0.000000000000000000, 3.000000000000000000, -46.85000000000000142 ) ) ;
#84 = ORIENTED_EDGE ( 'NONE', *, *, #92, .F. ) ;
#85 = DATE_AND_TIME ( #9, #170 ) ;
#86 = EDGE_CURVE ( 'NONE', #47, #143, #116, .T. ) ;
#87 = AXIS2_PLACEMENT_3D ( 'NONE', #156, #177, #1 ) ;
#88 = PERSON_AND_ORGANIZATION_ROLE ( 'classification_officer' ) ;
#89 = DIRECTION ( 'NONE',  ( 0.000000000000000000, 0.000000000000000000, -1.000000000000000000 ) ) ;
#90 = CALENDAR_DATE ( 2024, 6, 8 ) ;
#91 = ORIENTED_EDGE ( 'NONE', *, *, #37, .F. ) ;
#92 = EDGE_CURVE ( 'NONE', #108, #57, #39, .T. ) ;
#93 = VERTEX_POINT ( 'NONE', #157 ) ;
#94 = ORIENTED_EDGE ( 'NONE', *, *, #56, .T. ) ;
#95 = CC_DESIGN_APPROVAL ( #219, ( #61 ) ) ;
#96 = CARTESIAN_POINT ( 'NONE',  ( 2.063529856563287483E-15, 3.000000000000000000, 16.84999999999998010 ) ) ;
#97 = CARTESIAN_POINT ( 'NONE',  ( 5.737470254005350211E-15, 0.000000000000000000, 46.85000000000000142 ) ) ;
#98 = EDGE_CURVE ( 'NONE', #57, #108, #178, .T. ) ;
#99 = CLOSED_SHELL ( 'NONE', ( #42, #69, #13, #72, #243, #138 ) ) ;
#100 = CARTESIAN_POINT ( 'NONE',  ( 5.737470254005350211E-15, 3.000000000000000000, 46.85000000000000142 ) ) ;
#101 = PRODUCT_DEFINITION_SHAPE ( 'NONE', 'NONE',  #61 ) ;
#102 = DIRECTION ( 'NONE',  ( -0.000000000000000000, -1.000000000000000000, -0.000000000000000000 ) ) ;
#103 = DIRECTION ( 'NONE',  ( -0.000000000000000000, -1.000000000000000000, -0.000000000000000000 ) ) ;
#104 = ORIENTED_EDGE ( 'NONE', *, *, #8, .F. ) ;
#105 = APPLICATION_PROTOCOL_DEFINITION ( 'international standard', 'config_control_design', 1994, #245 ) ;
#106 = CC_DESIGN_PERSON_AND_ORGANIZATION_ASSIGNMENT ( #163, #238, ( #16 ) ) ;
#107 = DATE_TIME_ROLE ( 'creation_date' ) ;
#108 = VERTEX_POINT ( 'NONE', #230 ) ;
#109 = EDGE_LOOP ( 'NONE', ( #174, #207, #94, #153 ) ) ;
#110 = DIRECTION ( 'NONE',  ( 1.000000000000000000, 0.000000000000000000, 0.000000000000000000 ) ) ;
#111 = MANIFOLD_SOLID_BREP ( 'Aufsatz-Linear austragen1', #99 ) ;
#112 = VERTEX_POINT ( 'NONE', #22 ) ;
#113 = DIRECTION ( 'NONE',  ( 0.000000000000000000, 0.000000000000000000, 1.000000000000000000 ) ) ;
#114 = DIRECTION ( 'NONE',  ( 0.000000000000000000, 0.000000000000000000, 1.000000000000000000 ) ) ;
#115 =( NAMED_UNIT ( * ) SI_UNIT ( $, .STERADIAN. ) SOLID_ANGLE_UNIT ( ) );
#116 = LINE ( 'NONE', #100, #208 ) ;
#117 = AXIS2_PLACEMENT_3D ( 'NONE', #193, #223, #89 ) ;
#118 = PRODUCT_RELATED_PRODUCT_CATEGORY ( 'detail', '', ( #135 ) ) ;
#119 = CARTESIAN_POINT ( 'NONE',  ( 0.000000000000000000, 3.000000000000000000, -46.85000000000000142 ) ) ;
#120 = VERTEX_POINT ( 'NONE', #215 ) ;
#121 = APPLICATION_PROTOCOL_DEFINITION ( 'international standard', 'config_control_design', 1994, #6 ) ;
#122 = CC_DESIGN_PERSON_AND_ORGANIZATION_ASSIGNMENT ( #164, #240, ( #135 ) ) ;
#123 = ORIENTED_EDGE ( 'NONE', *, *, #82, .F. ) ;
#124 = COORDINATED_UNIVERSAL_TIME_OFFSET ( 1, 0, .AHEAD. ) ;
#125 = ORIENTED_EDGE ( 'NONE', *, *, #92, .T. ) ;
#126 = CC_DESIGN_SECURITY_CLASSIFICATION ( #173, ( #16 ) ) ;
#127 = CIRCLE ( 'NONE', #32, 16.84999999999998010 ) ;
#128 = LINE ( 'NONE', #96, #197 ) ;
#129 = FACE_OUTER_BOUND ( 'NONE', #49, .T. ) ;
#130 = EDGE_LOOP ( 'NONE', ( #91, #73, #167, #84 ) ) ;
#131 =( NAMED_UNIT ( * ) PLANE_ANGLE_UNIT ( ) SI_UNIT ( $, .RADIAN. ) );
#132 =( GEOMETRIC_REPRESENTATION_CONTEXT ( 3 ) GLOBAL_UNCERTAINTY_ASSIGNED_CONTEXT ( ( #176 ) ) GLOBAL_UNIT_ASSIGNED_CONTEXT ( ( #45, #131, #115 ) ) REPRESENTATION_CONTEXT ( 'NONE', 'WORKASPACE' ) );
#133 = CARTESIAN_POINT ( 'NONE',  ( 0.000000000000000000, 3.000000000000000000, 0.000000000000000000 ) ) ;
#134 = DIRECTION ( 'NONE',  ( 0.000000000000000000, 1.000000000000000000, 0.000000000000000000 ) ) ;
#135 = PRODUCT ( '3D_R243_33.7x3_17386050', '3D_R243_33.7x3_17386050', '', ( #28 ) ) ;
#136 = VECTOR ( 'NONE', #188, 1000.000000000000000 ) ;
#137 = CARTESIAN_POINT ( 'NONE',  ( 0.000000000000000000, 0.000000000000000000, 0.000000000000000000 ) ) ;
#138 = ADVANCED_FACE ( 'NONE', ( #40 ), #181, .F. ) ;
#139 = PERSON_AND_ORGANIZATION ( #150, #218 ) ;
#140 = CC_DESIGN_APPROVAL ( #17, ( #16 ) ) ;
#141 = DATE_AND_TIME ( #235, #155 ) ;
#142 = APPROVAL_STATUS ( 'not_yet_approved' ) ;
#143 = VERTEX_POINT ( 'NONE', #97 ) ;
#144 = PERSON_AND_ORGANIZATION_ROLE ( 'creator' ) ;
#145 = AXIS2_PLACEMENT_3D ( 'NONE', #38, #19, #114 ) ;
#146 = EDGE_CURVE ( 'NONE', #205, #47, #233, .T. ) ;
#147 = EDGE_LOOP ( 'NONE', ( #53, #213, #222, #104 ) ) ;
#148 = APPROVAL_PERSON_ORGANIZATION ( #184, #17, #68 ) ;
#149 = DIRECTION ( 'NONE',  ( 0.000000000000000000, 1.000000000000000000, 0.000000000000000000 ) ) ;
#150 = PERSON ( 'UNSPECIFIED', 'UNSPECIFIED', 'UNSPECIFIED', ('UNSPECIFIED'), ('UNSPECIFIED'), ('UNSPECIFIED') ) ;
#151 = CYLINDRICAL_SURFACE ( 'NONE', #26, 46.85000000000000142 ) ;
#152 = APPROVAL ( #10, 'UNSPECIFIED' ) ;
#153 = ORIENTED_EDGE ( 'NONE', *, *, #237, .F. ) ;
#154 = DIRECTION ( 'NONE',  ( 0.000000000000000000, 0.000000000000000000, 1.000000000000000000 ) ) ;
#155 = LOCAL_TIME ( 10, 39, 1.000000000000000000, #67 ) ;
#156 = CARTESIAN_POINT ( 'NONE',  ( 0.000000000000000000, 3.000000000000000000, 0.000000000000000000 ) ) ;
#157 = CARTESIAN_POINT ( 'NONE',  ( 0.000000000000000000, 0.000000000000000000, -46.85000000000000142 ) ) ;
#158 = DIRECTION ( 'NONE',  ( 0.000000000000000000, 0.000000000000000000, 1.000000000000000000 ) ) ;
#159 = AXIS2_PLACEMENT_3D ( 'NONE', #226, #165, #113 ) ;
#160 = APPROVAL_ROLE ( '' ) ;
#161 = CC_DESIGN_DATE_AND_TIME_ASSIGNMENT ( #141, #65, ( #173 ) ) ;
#162 = DATE_AND_TIME ( #90, #234 ) ;
#163 = PERSON_AND_ORGANIZATION ( #150, #218 ) ;
#164 = PERSON_AND_ORGANIZATION ( #150, #218 ) ;
#165 = DIRECTION ( 'NONE',  ( 0.000000000000000000, 1.000000000000000000, 0.000000000000000000 ) ) ;
#166 = SHAPE_DEFINITION_REPRESENTATION ( #101, #2 ) ;
#167 = ORIENTED_EDGE ( 'NONE', *, *, #8, .T. ) ;
#168 = CIRCLE ( 'NONE', #58, 46.85000000000000142 ) ;
#169 = AXIS2_PLACEMENT_3D ( 'NONE', #23, #62, #80 ) ;
#170 = LOCAL_TIME ( 10, 39, 1.000000000000000000, #71 ) ;
#171 = CC_DESIGN_PERSON_AND_ORGANIZATION_ASSIGNMENT ( #220, #14, ( #61 ) ) ;
#172 = LINE ( 'NONE', #247, #136 ) ;
#173 = SECURITY_CLASSIFICATION ( '', '', #185 ) ;
#174 = ORIENTED_EDGE ( 'NONE', *, *, #52, .F. ) ;
#175 = ORIENTED_EDGE ( 'NONE', *, *, #192, .F. ) ;
#176 = UNCERTAINTY_MEASURE_WITH_UNIT (LENGTH_MEASURE( 1.000000000000000082E-05 ), #45, 'distance_accuracy_value', 'NONE');
#177 = DIRECTION ( 'NONE',  ( -0.000000000000000000, -1.000000000000000000, -0.000000000000000000 ) ) ;
#178 = CIRCLE ( 'NONE', #182, 16.84999999999998010 ) ;
#179 = FACE_BOUND ( 'NONE', #211, .T. ) ;
#180 = CARTESIAN_POINT ( 'NONE',  ( 0.000000000000000000, 0.000000000000000000, 0.000000000000000000 ) ) ;
#181 = CYLINDRICAL_SURFACE ( 'NONE', #87, 16.84999999999998010 ) ;
#182 = AXIS2_PLACEMENT_3D ( 'NONE', #21, #198, #154 ) ;
#183 = APPROVAL_ROLE ( '' ) ;
#184 = PERSON_AND_ORGANIZATION ( #150, #218 ) ;
#185 = SECURITY_CLASSIFICATION_LEVEL ( 'unclassified' ) ;
#186 = CARTESIAN_POINT ( 'NONE',  ( 0.000000000000000000, 3.000000000000000000, 0.000000000000000000 ) ) ;
#187 = DATE_AND_TIME ( #7, #51 ) ;
#188 = DIRECTION ( 'NONE',  ( -0.000000000000000000, -1.000000000000000000, -0.000000000000000000 ) ) ;
#189 = PERSON_AND_ORGANIZATION ( #150, #218 ) ;
#190 = AXIS2_PLACEMENT_3D ( 'NONE', #204, #221, #110 ) ;
#191 = CYLINDRICAL_SURFACE ( 'NONE', #117, 16.84999999999998010 ) ;
#192 = EDGE_CURVE ( 'NONE', #120, #112, #43, .T. ) ;
#193 = CARTESIAN_POINT ( 'NONE',  ( 0.000000000000000000, 3.000000000000000000, 0.000000000000000000 ) ) ;
#194 = DIRECTION ( 'NONE',  ( -0.000000000000000000, -1.000000000000000000, -0.000000000000000000 ) ) ;
#195 = DIRECTION ( 'NONE',  ( 0.000000000000000000, 0.000000000000000000, -1.000000000000000000 ) ) ;
#196 = CC_DESIGN_PERSON_AND_ORGANIZATION_ASSIGNMENT ( #189, #144, ( #16 ) ) ;
#197 = VECTOR ( 'NONE', #194, 1000.000000000000000 ) ;
#198 = DIRECTION ( 'NONE',  ( 0.000000000000000000, 1.000000000000000000, 0.000000000000000000 ) ) ;
#199 = DIRECTION ( 'NONE',  ( -0.000000000000000000, -1.000000000000000000, -0.000000000000000000 ) ) ;
#200 = DIRECTION ( 'NONE',  ( 0.000000000000000000, 1.000000000000000000, 0.000000000000000000 ) ) ;
#201 = EDGE_LOOP ( 'NONE', ( #175, #123 ) ) ;
#202 = APPROVAL_DATE_TIME ( #187, #219 ) ;
#203 = PERSON_AND_ORGANIZATION ( #150, #218 ) ;
#204 = CARTESIAN_POINT ( 'NONE',  ( 0.000000000000000000, 0.000000000000000000, 0.000000000000000000 ) ) ;
#205 = VERTEX_POINT ( 'NONE', #83 ) ;
#206 = APPROVAL_DATE_TIME ( #85, #17 ) ;
#207 = ORIENTED_EDGE ( 'NONE', *, *, #86, .T. ) ;
#208 = VECTOR ( 'NONE', #103, 1000.000000000000000 ) ;
#209 = APPROVAL_PERSON_ORGANIZATION ( #27, #152, #183 ) ;
#210 = APPROVAL_STATUS ( 'not_yet_approved' ) ;
#211 = EDGE_LOOP ( 'NONE', ( #5, #125 ) ) ;
#212 = ORIENTED_EDGE ( 'NONE', *, *, #225, .F. ) ;
#213 = ORIENTED_EDGE ( 'NONE', *, *, #37, .T. ) ;
#214 = CARTESIAN_POINT ( 'NONE',  ( 0.000000000000000000, 3.000000000000000000, 0.000000000000000000 ) ) ;
#215 = CARTESIAN_POINT ( 'NONE',  ( 0.000000000000000000, 3.000000000000000000, -16.84999999999998010 ) ) ;
#216 = DIRECTION ( 'NONE',  ( 0.000000000000000000, 0.000000000000000000, -1.000000000000000000 ) ) ;
#217 = CARTESIAN_POINT ( 'NONE',  ( 0.000000000000000000, 3.000000000000000000, 0.000000000000000000 ) ) ;
#218 = ORGANIZATION ( 'UNSPECIFIED', 'UNSPECIFIED', '' ) ;
#219 = APPROVAL ( #210, 'UNSPECIFIED' ) ;
#220 = PERSON_AND_ORGANIZATION ( #150, #218 ) ;
#221 = DIRECTION ( 'NONE',  ( 0.000000000000000000, 0.000000000000000000, 1.000000000000000000 ) ) ;
#222 = ORIENTED_EDGE ( 'NONE', *, *, #98, .F. ) ;
#223 = DIRECTION ( 'NONE',  ( -0.000000000000000000, -1.000000000000000000, -0.000000000000000000 ) ) ;
#224 = AXIS2_PLACEMENT_3D ( 'NONE', #64, #134, #81 ) ;
#225 = EDGE_CURVE ( 'NONE', #93, #143, #168, .T. ) ;
#226 = CARTESIAN_POINT ( 'NONE',  ( 0.000000000000000000, 3.000000000000000000, 0.000000000000000000 ) ) ;
#227 = ORIENTED_EDGE ( 'NONE', *, *, #52, .T. ) ;
#228 = CYLINDRICAL_SURFACE ( 'NONE', #79, 46.85000000000000142 ) ;
#229 = APPROVAL_PERSON_ORGANIZATION ( #139, #219, #160 ) ;
#230 = CARTESIAN_POINT ( 'NONE',  ( 2.063529856563287483E-15, 0.000000000000000000, 16.84999999999998010 ) ) ;
#231 = DIRECTION ( 'NONE',  ( 0.000000000000000000, 1.000000000000000000, 0.000000000000000000 ) ) ;
#232 = LINE ( 'NONE', #119, #66 ) ;
#233 = CIRCLE ( 'NONE', #224, 46.85000000000000142 ) ;
#234 = LOCAL_TIME ( 10, 39, 1.000000000000000000, #30 ) ;
#235 = CALENDAR_DATE ( 2024, 6, 8 ) ;
#236 = APPROVAL_DATE_TIME ( #162, #152 ) ;
#237 = EDGE_CURVE ( 'NONE', #205, #93, #232, .T. ) ;
#238 = PERSON_AND_ORGANIZATION_ROLE ( 'design_supplier' ) ;
#239 = LOCAL_TIME ( 10, 39, 1.000000000000000000, #124 ) ;
#240 = PERSON_AND_ORGANIZATION_ROLE ( 'design_owner' ) ;
#241 = FACE_OUTER_BOUND ( 'NONE', #147, .T. ) ;
#242 = CALENDAR_DATE ( 2024, 6, 8 ) ;
#243 = ADVANCED_FACE ( 'NONE', ( #60 ), #228, .T. ) ;
#244 = PLANE ( 'NONE',  #54 ) ;
#245 = APPLICATION_CONTEXT ( 'configuration controlled 3d designs of mechanical parts and assemblies' ) ;
#246 = CARTESIAN_POINT ( 'NONE',  ( 0.000000000000000000, 3.000000000000000000, 0.000000000000000000 ) ) ;
#247 = CARTESIAN_POINT ( 'NONE',  ( 0.000000000000000000, 3.000000000000000000, -16.84999999999998010 ) ) ;
#248 = ORIENTED_EDGE ( 'NONE', *, *, #146, .T. ) ;
#249 = CC_DESIGN_PERSON_AND_ORGANIZATION_ASSIGNMENT ( #203, #88, ( #173 ) ) ;
ENDSEC;
END-ISO-10303-21;
