ISO-10303-21;
HEADER;
FILE_DESCRIPTION (( 'STEP AP203' ),
    '1' );
FILE_NAME ('3D_R245_42.4x4_17386100.STEP',
    '2024-08-06T09:30:12',
    ( '' ),
    ( '' ),
    'SwSTEP 2.0',
    'SolidWorks 2024',
    '' );
FILE_SCHEMA (( 'CONFIG_CONTROL_DESIGN' ));
ENDSEC;

DATA;
#1 = DIRECTION ( 'NONE',  ( 0.000000000000000000, 0.000000000000000000, -1.000000000000000000 ) ) ;
#2 = CYLINDRICAL_SURFACE ( 'NONE', #65, 21.50000000000000000 ) ;
#3 = AXIS2_PLACEMENT_3D ( 'NONE', #98, #176, #78 ) ;
#4 = CARTESIAN_POINT ( 'NONE',  ( 0.000000000000000000, 4.000000000000000000, 0.000000000000000000 ) ) ;
#5 = AXIS2_PLACEMENT_3D ( 'NONE', #158, #187, #144 ) ;
#6 = LINE ( 'NONE', #197, #208 ) ;
#7 = ADVANCED_FACE ( 'NONE', ( #241 ), #166, .F. ) ;
#8 = CARTESIAN_POINT ( 'NONE',  ( 0.000000000000000000, 4.000000000000000000, 0.000000000000000000 ) ) ;
#9 = ORGANIZATION ( 'UNSPECIFIED', 'UNSPECIFIED', '' ) ;
#10 = CC_DESIGN_APPROVAL ( #16, ( #157 ) ) ;
#11 = APPROVAL ( #149, 'UNSPECIFIED' ) ;
#12 = VERTEX_POINT ( 'NONE', #38 ) ;
#13 = CLOSED_SHELL ( 'NONE', ( #106, #152, #102, #26, #181, #7 ) ) ;
#14 = ORIENTED_EDGE ( 'NONE', *, *, #142, .F. ) ;
#15 = EDGE_LOOP ( 'NONE', ( #207, #18 ) ) ;
#16 = APPROVAL ( #81, 'UNSPECIFIED' ) ;
#17 = VERTEX_POINT ( 'NONE', #85 ) ;
#18 = ORIENTED_EDGE ( 'NONE', *, *, #227, .T. ) ;
#19 = PERSON_AND_ORGANIZATION_ROLE ( 'creator' ) ;
#20 =( NAMED_UNIT ( * ) PLANE_ANGLE_UNIT ( ) SI_UNIT ( $, .RADIAN. ) );
#21 = PRODUCT_RELATED_PRODUCT_CATEGORY ( 'detail', '', ( #153 ) ) ;
#22 = LINE ( 'NONE', #80, #83 ) ;
#23 = CIRCLE ( 'NONE', #3, 71.50000000000001421 ) ;
#24 = APPROVAL_PERSON_ORGANIZATION ( #89, #11, #210 ) ;
#25 = CYLINDRICAL_SURFACE ( 'NONE', #234, 71.50000000000001421 ) ;
#26 = ADVANCED_FACE ( 'NONE', ( #107, #75 ), #68, .F. ) ;
#27 = CARTESIAN_POINT ( 'NONE',  ( 0.000000000000000000, 4.000000000000000000, -71.50000000000001421 ) ) ;
#28 = APPLICATION_PROTOCOL_DEFINITION ( 'international standard', 'config_control_design', 1994, #203 ) ;
#29 = SECURITY_CLASSIFICATION ( '', '', #185 ) ;
#30 = AXIS2_PLACEMENT_3D ( 'NONE', #116, #131, #216 ) ;
#31 = EDGE_CURVE ( 'NONE', #109, #87, #47, .T. ) ;
#32 = ORIENTED_EDGE ( 'NONE', *, *, #167, .T. ) ;
#33 = AXIS2_PLACEMENT_3D ( 'NONE', #8, #43, #115 ) ;
#34 = ORIENTED_EDGE ( 'NONE', *, *, #198, .T. ) ;
#35 = DESIGN_CONTEXT ( 'detailed design', #203, 'design' ) ;
#36 = DIRECTION ( 'NONE',  ( 0.000000000000000000, 1.000000000000000000, 0.000000000000000000 ) ) ;
#37 = PERSON_AND_ORGANIZATION_ROLE ( 'design_supplier' ) ;
#38 = CARTESIAN_POINT ( 'NONE',  ( 0.000000000000000000, 4.000000000000000000, -21.50000000000000000 ) ) ;
#39 = ORIENTED_EDGE ( 'NONE', *, *, #112, .T. ) ;
#40 = COORDINATED_UNIVERSAL_TIME_OFFSET ( 1, 0, .AHEAD. ) ;
#41 =( LENGTH_UNIT ( ) NAMED_UNIT ( * ) SI_UNIT ( .MILLI., .METRE. ) );
#42 = CC_DESIGN_APPROVAL ( #11, ( #93 ) ) ;
#43 = DIRECTION ( 'NONE',  ( 0.000000000000000000, 1.000000000000000000, 0.000000000000000000 ) ) ;
#44 = DIRECTION ( 'NONE',  ( 0.000000000000000000, 0.000000000000000000, -1.000000000000000000 ) ) ;
#45 = DIRECTION ( 'NONE',  ( 0.000000000000000000, 1.000000000000000000, 0.000000000000000000 ) ) ;
#46 = APPROVAL_ROLE ( '' ) ;
#47 = CIRCLE ( 'NONE', #114, 71.50000000000001421 ) ;
#48 = EDGE_LOOP ( 'NONE', ( #192, #249, #224, #146 ) ) ;
#49 = EDGE_CURVE ( 'NONE', #12, #221, #50, .T. ) ;
#50 = LINE ( 'NONE', #121, #82 ) ;
#51 = COORDINATED_UNIVERSAL_TIME_OFFSET ( 1, 0, .AHEAD. ) ;
#52 = CARTESIAN_POINT ( 'NONE',  ( 0.000000000000000000, 0.000000000000000000, -71.50000000000001421 ) ) ;
#53 = PERSON_AND_ORGANIZATION_ROLE ( 'classification_officer' ) ;
#54 = DIRECTION ( 'NONE',  ( -0.000000000000000000, -1.000000000000000000, -0.000000000000000000 ) ) ;
#55 = VECTOR ( 'NONE', #215, 1000.000000000000000 ) ;
#56 = EDGE_LOOP ( 'NONE', ( #212, #34 ) ) ;
#57 = DIRECTION ( 'NONE',  ( -0.000000000000000000, -1.000000000000000000, -0.000000000000000000 ) ) ;
#58 = APPROVAL_DATE_TIME ( #143, #11 ) ;
#59 = DIRECTION ( 'NONE',  ( -0.000000000000000000, -1.000000000000000000, -0.000000000000000000 ) ) ;
#60 = CC_DESIGN_PERSON_AND_ORGANIZATION_ASSIGNMENT ( #63, #119, ( #153 ) ) ;
#61 = FACE_OUTER_BOUND ( 'NONE', #113, .T. ) ;
#62 = DIRECTION ( 'NONE',  ( -0.000000000000000000, -1.000000000000000000, -0.000000000000000000 ) ) ;
#63 = PERSON_AND_ORGANIZATION ( #239, #9 ) ;
#64 = EDGE_CURVE ( 'NONE', #221, #17, #186, .T. ) ;
#65 = AXIS2_PLACEMENT_3D ( 'NONE', #217, #97, #231 ) ;
#66 = ORIENTED_EDGE ( 'NONE', *, *, #31, .F. ) ;
#67 = DATE_AND_TIME ( #244, #242 ) ;
#68 = PLANE ( 'NONE',  #180 ) ;
#69 = PERSON_AND_ORGANIZATION ( #239, #9 ) ;
#70 = VERTEX_POINT ( 'NONE', #103 ) ;
#71 = CARTESIAN_POINT ( 'NONE',  ( 8.756224613903575715E-15, 4.000000000000000000, 71.50000000000001421 ) ) ;
#72 = PERSON_AND_ORGANIZATION ( #239, #9 ) ;
#73 = ORIENTED_EDGE ( 'NONE', *, *, #118, .T. ) ;
#74 = CALENDAR_DATE ( 2024, 6, 8 ) ;
#75 = FACE_BOUND ( 'NONE', #15, .T. ) ;
#76 = CARTESIAN_POINT ( 'NONE',  ( 0.000000000000000000, 0.000000000000000000, -21.50000000000000000 ) ) ;
#77 = PRODUCT_DEFINITION_SHAPE ( 'NONE', 'NONE',  #157 ) ;
#78 = DIRECTION ( 'NONE',  ( 0.000000000000000000, 0.000000000000000000, 1.000000000000000000 ) ) ;
#79 = DIRECTION ( 'NONE',  ( 0.000000000000000000, 0.000000000000000000, 1.000000000000000000 ) ) ;
#80 = CARTESIAN_POINT ( 'NONE',  ( 0.000000000000000000, 4.000000000000000000, -71.50000000000001421 ) ) ;
#81 = APPROVAL_STATUS ( 'not_yet_approved' ) ;
#82 = VECTOR ( 'NONE', #54, 1000.000000000000000 ) ;
#83 = VECTOR ( 'NONE', #59, 1000.000000000000000 ) ;
#84 = CC_DESIGN_DATE_AND_TIME_ASSIGNMENT ( #126, #229, ( #157 ) ) ;
#85 = CARTESIAN_POINT ( 'NONE',  ( 2.632990618166809235E-15, 0.000000000000000000, 21.50000000000000000 ) ) ;
#86 = COORDINATED_UNIVERSAL_TIME_OFFSET ( 1, 0, .AHEAD. ) ;
#87 = VERTEX_POINT ( 'NONE', #52 ) ;
#88 = CARTESIAN_POINT ( 'NONE',  ( 0.000000000000000000, 4.000000000000000000, 0.000000000000000000 ) ) ;
#89 = PERSON_AND_ORGANIZATION ( #239, #9 ) ;
#90 = ORIENTED_EDGE ( 'NONE', *, *, #174, .F. ) ;
#91 = PERSON_AND_ORGANIZATION_ROLE ( 'creator' ) ;
#92 = APPROVAL ( #145, 'UNSPECIFIED' ) ;
#93 = PRODUCT_DEFINITION_FORMATION_WITH_SPECIFIED_SOURCE ( 'ANY', '', #153, .NOT_KNOWN. ) ;
#94 = ORIENTED_EDGE ( 'NONE', *, *, #122, .F. ) ;
#95 = CIRCLE ( 'NONE', #120, 21.50000000000000000 ) ;
#96 = CARTESIAN_POINT ( 'NONE',  ( 0.000000000000000000, 0.000000000000000000, 0.000000000000000000 ) ) ;
#97 = DIRECTION ( 'NONE',  ( -0.000000000000000000, -1.000000000000000000, -0.000000000000000000 ) ) ;
#98 = CARTESIAN_POINT ( 'NONE',  ( 0.000000000000000000, 4.000000000000000000, 0.000000000000000000 ) ) ;
#99 = CC_DESIGN_PERSON_AND_ORGANIZATION_ASSIGNMENT ( #104, #19, ( #157 ) ) ;
#100 = PERSON_AND_ORGANIZATION ( #239, #9 ) ;
#101 = VERTEX_POINT ( 'NONE', #71 ) ;
#102 = ADVANCED_FACE ( 'NONE', ( #111, #160 ), #190, .T. ) ;
#103 = CARTESIAN_POINT ( 'NONE',  ( 2.632990618166809235E-15, 4.000000000000000000, 21.50000000000000000 ) ) ;
#104 = PERSON_AND_ORGANIZATION ( #239, #9 ) ;
#105 = APPROVAL_PERSON_ORGANIZATION ( #100, #16, #46 ) ;
#106 = ADVANCED_FACE ( 'NONE', ( #61 ), #2, .F. ) ;
#107 = FACE_OUTER_BOUND ( 'NONE', #184, .T. ) ;
#108 = SHAPE_DEFINITION_REPRESENTATION ( #77, #182 ) ;
#109 = VERTEX_POINT ( 'NONE', #172 ) ;
#110 = APPROVAL_DATE_TIME ( #165, #92 ) ;
#111 = FACE_OUTER_BOUND ( 'NONE', #56, .T. ) ;
#112 = EDGE_CURVE ( 'NONE', #70, #12, #248, .T. ) ;
#113 = EDGE_LOOP ( 'NONE', ( #243, #73, #141, #147 ) ) ;
#114 = AXIS2_PLACEMENT_3D ( 'NONE', #148, #164, #245 ) ;
#115 = DIRECTION ( 'NONE',  ( 0.000000000000000000, 0.000000000000000000, 1.000000000000000000 ) ) ;
#116 = CARTESIAN_POINT ( 'NONE',  ( 0.000000000000000000, 0.000000000000000000, 0.000000000000000000 ) ) ;
#117 = CARTESIAN_POINT ( 'NONE',  ( 8.756224613903575715E-15, 4.000000000000000000, 71.50000000000001421 ) ) ;
#118 = EDGE_CURVE ( 'NONE', #70, #17, #6, .T. ) ;
#119 = PERSON_AND_ORGANIZATION_ROLE ( 'design_owner' ) ;
#120 = AXIS2_PLACEMENT_3D ( 'NONE', #4, #45, #230 ) ;
#121 = CARTESIAN_POINT ( 'NONE',  ( 0.000000000000000000, 4.000000000000000000, -21.50000000000000000 ) ) ;
#122 = EDGE_CURVE ( 'NONE', #12, #70, #95, .T. ) ;
#123 = ORIENTED_EDGE ( 'NONE', *, *, #198, .F. ) ;
#124 = UNCERTAINTY_MEASURE_WITH_UNIT (LENGTH_MEASURE( 1.000000000000000082E-05 ), #41, 'distance_accuracy_value', 'NONE');
#125 = EDGE_LOOP ( 'NONE', ( #123, #32, #129, #90 ) ) ;
#126 = DATE_AND_TIME ( #193, #169 ) ;
#127 = EDGE_LOOP ( 'NONE', ( #94, #211 ) ) ;
#128 = DATE_TIME_ROLE ( 'classification_date' ) ;
#129 = ORIENTED_EDGE ( 'NONE', *, *, #31, .T. ) ;
#130 = APPROVAL_ROLE ( '' ) ;
#131 = DIRECTION ( 'NONE',  ( 0.000000000000000000, 1.000000000000000000, 0.000000000000000000 ) ) ;
#132 = CARTESIAN_POINT ( 'NONE',  ( 0.000000000000000000, 0.000000000000000000, 0.000000000000000000 ) ) ;
#133 = APPLICATION_PROTOCOL_DEFINITION ( 'international standard', 'config_control_design', 1994, #240 ) ;
#134 = DIRECTION ( 'NONE',  ( -0.000000000000000000, -1.000000000000000000, -0.000000000000000000 ) ) ;
#135 = CIRCLE ( 'NONE', #30, 71.50000000000001421 ) ;
#136 = CARTESIAN_POINT ( 'NONE',  ( 0.000000000000000000, 4.000000000000000000, 0.000000000000000000 ) ) ;
#137 = CC_DESIGN_PERSON_AND_ORGANIZATION_ASSIGNMENT ( #69, #91, ( #93 ) ) ;
#138 = MECHANICAL_CONTEXT ( 'NONE', #240, 'mechanical' ) ;
#139 = LOCAL_TIME ( 11, 30, 12.00000000000000000, #177 ) ;
#140 = AXIS2_PLACEMENT_3D ( 'NONE', #209, #36, #168 ) ;
#141 = ORIENTED_EDGE ( 'NONE', *, *, #64, .F. ) ;
#142 = EDGE_CURVE ( 'NONE', #87, #109, #135, .T. ) ;
#143 = DATE_AND_TIME ( #161, #236 ) ;
#144 = DIRECTION ( 'NONE',  ( 0.000000000000000000, 0.000000000000000000, 1.000000000000000000 ) ) ;
#145 = APPROVAL_STATUS ( 'not_yet_approved' ) ;
#146 = ORIENTED_EDGE ( 'NONE', *, *, #142, .T. ) ;
#147 = ORIENTED_EDGE ( 'NONE', *, *, #49, .F. ) ;
#148 = CARTESIAN_POINT ( 'NONE',  ( 0.000000000000000000, 0.000000000000000000, 0.000000000000000000 ) ) ;
#149 = APPROVAL_STATUS ( 'not_yet_approved' ) ;
#150 = DIRECTION ( 'NONE',  ( 0.000000000000000000, 1.000000000000000000, 0.000000000000000000 ) ) ;
#151 = CARTESIAN_POINT ( 'NONE',  ( 0.000000000000000000, 4.000000000000000000, 0.000000000000000000 ) ) ;
#152 = ADVANCED_FACE ( 'NONE', ( #175 ), #25, .T. ) ;
#153 = PRODUCT ( '3D_R245_42.4x4_17386100', '3D_R245_42.4x4_17386100', '', ( #138 ) ) ;
#154 = DIRECTION ( 'NONE',  ( -0.000000000000000000, -1.000000000000000000, -0.000000000000000000 ) ) ;
#155 = CYLINDRICAL_SURFACE ( 'NONE', #237, 71.50000000000001421 ) ;
#156 = AXIS2_PLACEMENT_3D ( 'NONE', #132, #150, #214 ) ;
#157 = PRODUCT_DEFINITION ( 'UNKNOWN', '', #93, #35 ) ;
#158 = CARTESIAN_POINT ( 'NONE',  ( 0.000000000000000000, 0.000000000000000000, 0.000000000000000000 ) ) ;
#159 = CC_DESIGN_SECURITY_CLASSIFICATION ( #29, ( #93 ) ) ;
#160 = FACE_BOUND ( 'NONE', #127, .T. ) ;
#161 = CALENDAR_DATE ( 2024, 6, 8 ) ;
#162 = CARTESIAN_POINT ( 'NONE',  ( 0.000000000000000000, 0.000000000000000000, 0.000000000000000000 ) ) ;
#163 = PERSON_AND_ORGANIZATION ( #239, #9 ) ;
#164 = DIRECTION ( 'NONE',  ( 0.000000000000000000, 1.000000000000000000, 0.000000000000000000 ) ) ;
#165 = DATE_AND_TIME ( #213, #238 ) ;
#166 = CYLINDRICAL_SURFACE ( 'NONE', #194, 21.50000000000000000 ) ;
#167 = EDGE_CURVE ( 'NONE', #101, #109, #233, .T. ) ;
#168 = DIRECTION ( 'NONE',  ( 0.000000000000000000, -0.000000000000000000, 1.000000000000000000 ) ) ;
#169 = LOCAL_TIME ( 11, 30, 12.00000000000000000, #40 ) ;
#170 = DIRECTION ( 'NONE',  ( 0.000000000000000000, 0.000000000000000000, -1.000000000000000000 ) ) ;
#171 = AXIS2_PLACEMENT_3D ( 'NONE', #151, #199, #79 ) ;
#172 = CARTESIAN_POINT ( 'NONE',  ( 8.756224613903575715E-15, 0.000000000000000000, 71.50000000000001421 ) ) ;
#173 = CC_DESIGN_APPROVAL ( #92, ( #29 ) ) ;
#174 = EDGE_CURVE ( 'NONE', #189, #87, #22, .T. ) ;
#175 = FACE_OUTER_BOUND ( 'NONE', #125, .T. ) ;
#176 = DIRECTION ( 'NONE',  ( 0.000000000000000000, 1.000000000000000000, 0.000000000000000000 ) ) ;
#177 = COORDINATED_UNIVERSAL_TIME_OFFSET ( 1, 0, .AHEAD. ) ;
#178 = MANIFOLD_SOLID_BREP ( 'Aufsatz-Linear austragen1', #13 ) ;
#179 = ORIENTED_EDGE ( 'NONE', *, *, #49, .T. ) ;
#180 = AXIS2_PLACEMENT_3D ( 'NONE', #162, #205, #228 ) ;
#181 = ADVANCED_FACE ( 'NONE', ( #200 ), #155, .T. ) ;
#182 = ADVANCED_BREP_SHAPE_REPRESENTATION ( '3D_R245_42.4x4_17386100', ( #178, #219 ), #223 ) ;
#183 = CIRCLE ( 'NONE', #156, 21.50000000000000000 ) ;
#184 = EDGE_LOOP ( 'NONE', ( #14, #66 ) ) ;
#185 = SECURITY_CLASSIFICATION_LEVEL ( 'unclassified' ) ;
#186 = CIRCLE ( 'NONE', #5, 21.50000000000000000 ) ;
#187 = DIRECTION ( 'NONE',  ( 0.000000000000000000, 1.000000000000000000, 0.000000000000000000 ) ) ;
#188 = PERSON_AND_ORGANIZATION ( #239, #9 ) ;
#189 = VERTEX_POINT ( 'NONE', #27 ) ;
#190 = PLANE ( 'NONE',  #140 ) ;
#191 = APPROVAL_DATE_TIME ( #246, #16 ) ;
#192 = ORIENTED_EDGE ( 'NONE', *, *, #167, .F. ) ;
#193 = CALENDAR_DATE ( 2024, 6, 8 ) ;
#194 = AXIS2_PLACEMENT_3D ( 'NONE', #88, #57, #1 ) ;
#195 = CC_DESIGN_PERSON_AND_ORGANIZATION_ASSIGNMENT ( #163, #53, ( #29 ) ) ;
#196 =( NAMED_UNIT ( * ) SI_UNIT ( $, .STERADIAN. ) SOLID_ANGLE_UNIT ( ) );
#197 = CARTESIAN_POINT ( 'NONE',  ( 2.632990618166809235E-15, 4.000000000000000000, 21.50000000000000000 ) ) ;
#198 = EDGE_CURVE ( 'NONE', #101, #189, #23, .T. ) ;
#199 = DIRECTION ( 'NONE',  ( 0.000000000000000000, 1.000000000000000000, 0.000000000000000000 ) ) ;
#200 = FACE_OUTER_BOUND ( 'NONE', #48, .T. ) ;
#201 = DIRECTION ( 'NONE',  ( 1.000000000000000000, 0.000000000000000000, 0.000000000000000000 ) ) ;
#202 = APPROVAL_PERSON_ORGANIZATION ( #72, #92, #130 ) ;
#203 = APPLICATION_CONTEXT ( 'configuration controlled 3d designs of mechanical parts and assemblies' ) ;
#204 = CC_DESIGN_PERSON_AND_ORGANIZATION_ASSIGNMENT ( #188, #37, ( #93 ) ) ;
#205 = DIRECTION ( 'NONE',  ( 0.000000000000000000, 1.000000000000000000, 0.000000000000000000 ) ) ;
#206 = CIRCLE ( 'NONE', #33, 71.50000000000001421 ) ;
#207 = ORIENTED_EDGE ( 'NONE', *, *, #64, .T. ) ;
#208 = VECTOR ( 'NONE', #154, 1000.000000000000000 ) ;
#209 = CARTESIAN_POINT ( 'NONE',  ( 0.000000000000000000, 4.000000000000000000, 0.000000000000000000 ) ) ;
#210 = APPROVAL_ROLE ( '' ) ;
#211 = ORIENTED_EDGE ( 'NONE', *, *, #112, .F. ) ;
#212 = ORIENTED_EDGE ( 'NONE', *, *, #247, .T. ) ;
#213 = CALENDAR_DATE ( 2024, 6, 8 ) ;
#214 = DIRECTION ( 'NONE',  ( 0.000000000000000000, 0.000000000000000000, 1.000000000000000000 ) ) ;
#215 = DIRECTION ( 'NONE',  ( -0.000000000000000000, -1.000000000000000000, -0.000000000000000000 ) ) ;
#216 = DIRECTION ( 'NONE',  ( 0.000000000000000000, 0.000000000000000000, 1.000000000000000000 ) ) ;
#217 = CARTESIAN_POINT ( 'NONE',  ( 0.000000000000000000, 4.000000000000000000, 0.000000000000000000 ) ) ;
#218 = CC_DESIGN_DATE_AND_TIME_ASSIGNMENT ( #67, #128, ( #29 ) ) ;
#219 = AXIS2_PLACEMENT_3D ( 'NONE', #96, #235, #201 ) ;
#220 = EDGE_LOOP ( 'NONE', ( #222, #39, #179, #225 ) ) ;
#221 = VERTEX_POINT ( 'NONE', #76 ) ;
#222 = ORIENTED_EDGE ( 'NONE', *, *, #118, .F. ) ;
#223 =( GEOMETRIC_REPRESENTATION_CONTEXT ( 3 ) GLOBAL_UNCERTAINTY_ASSIGNED_CONTEXT ( ( #124 ) ) GLOBAL_UNIT_ASSIGNED_CONTEXT ( ( #41, #20, #196 ) ) REPRESENTATION_CONTEXT ( 'NONE', 'WORKASPACE' ) );
#224 = ORIENTED_EDGE ( 'NONE', *, *, #174, .T. ) ;
#225 = ORIENTED_EDGE ( 'NONE', *, *, #227, .F. ) ;
#226 = COORDINATED_UNIVERSAL_TIME_OFFSET ( 1, 0, .AHEAD. ) ;
#227 = EDGE_CURVE ( 'NONE', #17, #221, #183, .T. ) ;
#228 = DIRECTION ( 'NONE',  ( 0.000000000000000000, -0.000000000000000000, 1.000000000000000000 ) ) ;
#229 = DATE_TIME_ROLE ( 'creation_date' ) ;
#230 = DIRECTION ( 'NONE',  ( 0.000000000000000000, 0.000000000000000000, 1.000000000000000000 ) ) ;
#231 = DIRECTION ( 'NONE',  ( 0.000000000000000000, 0.000000000000000000, -1.000000000000000000 ) ) ;
#232 = CARTESIAN_POINT ( 'NONE',  ( 0.000000000000000000, 4.000000000000000000, 0.000000000000000000 ) ) ;
#233 = LINE ( 'NONE', #117, #55 ) ;
#234 = AXIS2_PLACEMENT_3D ( 'NONE', #232, #62, #170 ) ;
#235 = DIRECTION ( 'NONE',  ( 0.000000000000000000, 0.000000000000000000, 1.000000000000000000 ) ) ;
#236 = LOCAL_TIME ( 11, 30, 12.00000000000000000, #86 ) ;
#237 = AXIS2_PLACEMENT_3D ( 'NONE', #136, #134, #44 ) ;
#238 = LOCAL_TIME ( 11, 30, 12.00000000000000000, #226 ) ;
#239 = PERSON ( 'UNSPECIFIED', 'UNSPECIFIED', 'UNSPECIFIED', ('UNSPECIFIED'), ('UNSPECIFIED'), ('UNSPECIFIED') ) ;
#240 = APPLICATION_CONTEXT ( 'configuration controlled 3d designs of mechanical parts and assemblies' ) ;
#241 = FACE_OUTER_BOUND ( 'NONE', #220, .T. ) ;
#242 = LOCAL_TIME ( 11, 30, 12.00000000000000000, #51 ) ;
#243 = ORIENTED_EDGE ( 'NONE', *, *, #122, .T. ) ;
#244 = CALENDAR_DATE ( 2024, 6, 8 ) ;
#245 = DIRECTION ( 'NONE',  ( 0.000000000000000000, 0.000000000000000000, 1.000000000000000000 ) ) ;
#246 = DATE_AND_TIME ( #74, #139 ) ;
#247 = EDGE_CURVE ( 'NONE', #189, #101, #206, .T. ) ;
#248 = CIRCLE ( 'NONE', #171, 21.50000000000000000 ) ;
#249 = ORIENTED_EDGE ( 'NONE', *, *, #247, .F. ) ;
ENDSEC;
END-ISO-10303-21;
