ISO-10303-21;
HEADER;
FILE_DESCRIPTION (( 'STEP AP203' ),
    '1' );
FILE_NAME ('19-0402-08_outokumpu.step',
    '2015-08-11T09:34:03',
    ( '' ),
    ( '' ),
    'SwSTEP 2.0',
    'SolidWorks 2008',
    '' );
FILE_SCHEMA (( 'CONFIG_CONTROL_DESIGN' ));
ENDSEC;

DATA;
#1 = CC_DESIGN_APPROVAL ( #258, ( #261 ) ) ;
#2 = APPROVAL ( #3, 'UNSPECIFIED' ) ;
#3 = APPROVAL_STATUS ( 'not_yet_approved' ) ;
#4 = APPROVAL_ROLE ( '' ) ;
#5 = APPROVAL_PERSON_ORGANIZATION ( #83, #2, #4 ) ;
#6 = DATE_AND_TIME ( #7, #9 ) ;
#7 = CALENDAR_DATE ( 2015, 11, 8 ) ;
#8 = APPROVAL_DATE_TIME ( #6, #2 ) ;
#9 = LOCAL_TIME ( 11, 34, 3.000000000000000000, #10 ) ;
#10 = COORDINATED_UNIVERSAL_TIME_OFFSET ( 1, 0, .AHEAD. ) ;
#11 = CC_DESIGN_APPROVAL ( #2, ( #84 ) ) ;
#12 = EDGE_CURVE ( 'NONE', #13, #110, #82, .T. ) ;
#13 = VERTEX_POINT ( 'NONE', #158 ) ;
#14 = ORIENTED_EDGE ( 'NONE', *, *, #15, .F. ) ;
#15 = EDGE_CURVE ( 'NONE', #91, #13, #157, .T. ) ;
#16 = ADVANCED_FACE ( 'NONE', ( #153 ), #151, .F. ) ;
#17 = EDGE_LOOP ( 'NONE', ( #204, #207, #114, #116, #117, #120 ) ) ;
#18 = PERSON_AND_ORGANIZATION ( #246, #224 ) ;
#19 = DIRECTION ( 'NONE',  ( 1.000000000000000000, 0.0000000000000000000, 0.0000000000000000000 ) ) ;
#20 = DIRECTION ( 'NONE',  ( -0.0000000000000000000, -0.0000000000000000000, 1.000000000000000000 ) ) ;
#21 = CARTESIAN_POINT ( 'NONE',  ( 0.0000000000000000000, 0.0000000000000000000, -0.8346587720068368000 ) ) ;
#22 = AXIS2_PLACEMENT_3D ( 'NONE', #21, #20, #19 ) ;
#23 = CIRCLE ( 'NONE', #22, 23.90149999999999900 ) ;
#24 = PERSON_AND_ORGANIZATION_ROLE ( 'creator' ) ;
#25 = CARTESIAN_POINT ( 'NONE',  ( 2.926992876588555800E-015, -23.90149999999999900, -0.8346587720068368000 ) ) ;
#26 = CARTESIAN_POINT ( 'NONE',  ( -23.90149999999999900, 2.978099298362213300E-015, -0.8346587720068368000 ) ) ;
#27 = DIRECTION ( 'NONE',  ( 1.000000000000000000, 0.0000000000000000000, 0.0000000000000000000 ) ) ;
#28 = DIRECTION ( 'NONE',  ( -0.0000000000000000000, -0.0000000000000000000, 1.000000000000000000 ) ) ;
#29 = CARTESIAN_POINT ( 'NONE',  ( 0.0000000000000000000, 0.0000000000000000000, -0.8346587720068368000 ) ) ;
#30 = AXIS2_PLACEMENT_3D ( 'NONE', #29, #28, #27 ) ;
#31 = DIRECTION ( 'NONE',  ( 1.000000000000000000, 0.0000000000000000000, 0.0000000000000000000 ) ) ;
#32 = DIRECTION ( 'NONE',  ( -0.0000000000000000000, -0.0000000000000000000, 1.000000000000000000 ) ) ;
#33 = CARTESIAN_POINT ( 'NONE',  ( 0.0000000000000000000, 0.0000000000000000000, -0.8346587720068368000 ) ) ;
#34 = AXIS2_PLACEMENT_3D ( 'NONE', #33, #32, #31 ) ;
#35 = CIRCLE ( 'NONE', #30, 23.90149999999999900 ) ;
#36 = CONICAL_SURFACE ( 'NONE', #34, 23.90149999999999900, 0.7853981633974538300 ) ;
#37 = FACE_OUTER_BOUND ( 'NONE', #174, .T. ) ;
#38 = DIRECTION ( 'NONE',  ( 1.000000000000000000, 0.0000000000000000000, 0.0000000000000000000 ) ) ;
#39 = DIRECTION ( 'NONE',  ( -0.0000000000000000000, -0.0000000000000000000, 1.000000000000000000 ) ) ;
#40 = CARTESIAN_POINT ( 'NONE',  ( 0.0000000000000000000, 0.0000000000000000000, -95.16534122799296800 ) ) ;
#41 = AXIS2_PLACEMENT_3D ( 'NONE', #40, #39, #38 ) ;
#42 = CIRCLE ( 'NONE', #41, 23.90149999999999900 ) ;
#43 = DATE_AND_TIME ( #44, #45 ) ;
#44 = CALENDAR_DATE ( 2015, 11, 8 ) ;
#45 = LOCAL_TIME ( 11, 34, 3.000000000000000000, #46 ) ;
#46 = COORDINATED_UNIVERSAL_TIME_OFFSET ( 1, 0, .AHEAD. ) ;
#47 = CC_DESIGN_PERSON_AND_ORGANIZATION_ASSIGNMENT ( #18, #24, ( #261 ) ) ;
#48 = ORIENTED_EDGE ( 'NONE', *, *, #168, .T. ) ;
#49 = ORIENTED_EDGE ( 'NONE', *, *, #103, .T. ) ;
#50 = ADVANCED_FACE ( 'NONE', ( #195 ), #189, .F. ) ;
#51 = EDGE_LOOP ( 'NONE', ( #87, #49, #53, #54, #57 ) ) ;
#52 = ORIENTED_EDGE ( 'NONE', *, *, #63, .F. ) ;
#53 = ORIENTED_EDGE ( 'NONE', *, *, #118, .T. ) ;
#54 = ORIENTED_EDGE ( 'NONE', *, *, #172, .T. ) ;
#55 = ORIENTED_EDGE ( 'NONE', *, *, #69, .T. ) ;
#56 = ORIENTED_EDGE ( 'NONE', *, *, #203, .T. ) ;
#57 = ORIENTED_EDGE ( 'NONE', *, *, #182, .F. ) ;
#58 = ORIENTED_EDGE ( 'NONE', *, *, #205, .F. ) ;
#59 = ORIENTED_EDGE ( 'NONE', *, *, #100, .F. ) ;
#60 = CLOSED_SHELL ( 'NONE', ( #176, #95, #88, #16, #161, #112, #183, #198, #209, #50 ) ) ;
#61 = EDGE_LOOP ( 'NONE', ( #72, #77, #79, #171, #93 ) ) ;
#62 = ORIENTED_EDGE ( 'NONE', *, *, #63, .T. ) ;
#63 = EDGE_CURVE ( 'NONE', #98, #64, #190, .T. ) ;
#64 = VERTEX_POINT ( 'NONE', #147 ) ;
#65 = ORIENTED_EDGE ( 'NONE', *, *, #66, .T. ) ;
#66 = EDGE_CURVE ( 'NONE', #64, #67, #146, .T. ) ;
#67 = VERTEX_POINT ( 'NONE', #141 ) ;
#68 = ORIENTED_EDGE ( 'NONE', *, *, #69, .F. ) ;
#69 = EDGE_CURVE ( 'NONE', #70, #67, #140, .T. ) ;
#70 = VERTEX_POINT ( 'NONE', #136 ) ;
#71 = EDGE_LOOP ( 'NONE', ( #89, #108, #111, #14 ) ) ;
#72 = ORIENTED_EDGE ( 'NONE', *, *, #73, .T. ) ;
#73 = EDGE_CURVE ( 'NONE', #74, #75, #135, .T. ) ;
#74 = VERTEX_POINT ( 'NONE', #130 ) ;
#75 = VERTEX_POINT ( 'NONE', #129 ) ;
#76 = VERTEX_POINT ( 'NONE', #128 ) ;
#77 = ORIENTED_EDGE ( 'NONE', *, *, #78, .T. ) ;
#78 = EDGE_CURVE ( 'NONE', #75, #76, #127, .T. ) ;
#79 = ORIENTED_EDGE ( 'NONE', *, *, #169, .F. ) ;
#80 = CARTESIAN_POINT ( 'NONE',  ( 0.0000000000000000000, 0.0000000000000000000, 0.0000000000000000000 ) ) ;
#81 = AXIS2_PLACEMENT_3D ( 'NONE', #80, #160, #159 ) ;
#82 = CIRCLE ( 'NONE', #81, 27.80000000000000100 ) ;
#83 = PERSON_AND_ORGANIZATION ( #246, #224 ) ;
#84 = PRODUCT_DEFINITION_FORMATION_WITH_SPECIFIED_SOURCE ( 'ANY', '', #247, .NOT_KNOWN. ) ;
#85 = CC_DESIGN_DATE_AND_TIME_ASSIGNMENT ( #43, #86, ( #261 ) ) ;
#86 = DATE_TIME_ROLE ( 'creation_date' ) ;
#87 = ORIENTED_EDGE ( 'NONE', *, *, #78, .F. ) ;
#88 = ADVANCED_FACE ( 'NONE', ( #123 ), #122, .T. ) ;
#89 = ORIENTED_EDGE ( 'NONE', *, *, #90, .T. ) ;
#90 = EDGE_CURVE ( 'NONE', #91, #92, #216, .T. ) ;
#91 = VERTEX_POINT ( 'NONE', #211 ) ;
#92 = VERTEX_POINT ( 'NONE', #210 ) ;
#93 = ORIENTED_EDGE ( 'NONE', *, *, #94, .T. ) ;
#94 = EDGE_CURVE ( 'NONE', #173, #74, #42, .T. ) ;
#95 = ADVANCED_FACE ( 'NONE', ( #37 ), #36, .F. ) ;
#96 = ORIENTED_EDGE ( 'NONE', *, *, #97, .F. ) ;
#97 = EDGE_CURVE ( 'NONE', #98, #99, #35, .T. ) ;
#98 = VERTEX_POINT ( 'NONE', #26 ) ;
#99 = VERTEX_POINT ( 'NONE', #25 ) ;
#100 = EDGE_CURVE ( 'NONE', #70, #206, #23, .T. ) ;
#101 = ORIENTED_EDGE ( 'NONE', *, *, #121, .T. ) ;
#102 = ORIENTED_EDGE ( 'NONE', *, *, #103, .F. ) ;
#103 = EDGE_CURVE ( 'NONE', #75, #119, #357, .T. ) ;
#104 = ORIENTED_EDGE ( 'NONE', *, *, #73, .F. ) ;
#105 = ORIENTED_EDGE ( 'NONE', *, *, #106, .T. ) ;
#106 = EDGE_CURVE ( 'NONE', #110, #13, #229, .T. ) ;
#107 = EDGE_LOOP ( 'NONE', ( #202, #200 ) ) ;
#108 = ORIENTED_EDGE ( 'NONE', *, *, #109, .T. ) ;
#109 = EDGE_CURVE ( 'NONE', #92, #110, #283, .T. ) ;
#110 = VERTEX_POINT ( 'NONE', #300 ) ;
#111 = ORIENTED_EDGE ( 'NONE', *, *, #12, .F. ) ;
#112 = ADVANCED_FACE ( 'NONE', ( #303, #302 ), #299, .F. ) ;
#113 = EDGE_LOOP ( 'NONE', ( #166, #167 ) ) ;
#114 = ORIENTED_EDGE ( 'NONE', *, *, #115, .T. ) ;
#115 = EDGE_CURVE ( 'NONE', #99, #74, #232, .T. ) ;
#116 = ORIENTED_EDGE ( 'NONE', *, *, #94, .F. ) ;
#117 = ORIENTED_EDGE ( 'NONE', *, *, #118, .F. ) ;
#118 = EDGE_CURVE ( 'NONE', #119, #173, #277, .T. ) ;
#119 = VERTEX_POINT ( 'NONE', #278 ) ;
#120 = ORIENTED_EDGE ( 'NONE', *, *, #121, .F. ) ;
#121 = EDGE_CURVE ( 'NONE', #206, #119, #304, .T. ) ;
#122 = CYLINDRICAL_SURFACE ( 'NONE', #220, 27.80000000000000400 ) ;
#123 = FACE_OUTER_BOUND ( 'NONE', #71, .T. ) ;
#124 = DIRECTION ( 'NONE',  ( 0.7071067811865563400, 8.659274570719462600E-017, -0.7071067811865388000 ) ) ;
#125 = VECTOR ( 'NONE', #124, 999.9999999999998900 ) ;
#126 = CARTESIAN_POINT ( 'NONE',  ( 24.73615877200704800, 3.029205720135896400E-015, -96.00000000000000000 ) ) ;
#127 = LINE ( 'NONE', #126, #125 ) ;
#128 = CARTESIAN_POINT ( 'NONE',  ( 24.73615877200704800, 3.029205720135896400E-015, -96.00000000000000000 ) ) ;
#129 = CARTESIAN_POINT ( 'NONE',  ( 23.90149999999999900, 2.978099298362225900E-015, -95.16534122799296800 ) ) ;
#130 = CARTESIAN_POINT ( 'NONE',  ( 2.926992876588555800E-015, -23.90149999999999900, -95.16534122799296800 ) ) ;
#131 = DIRECTION ( 'NONE',  ( 1.000000000000000000, 0.0000000000000000000, 0.0000000000000000000 ) ) ;
#132 = DIRECTION ( 'NONE',  ( -0.0000000000000000000, -0.0000000000000000000, 1.000000000000000000 ) ) ;
#133 = CARTESIAN_POINT ( 'NONE',  ( 0.0000000000000000000, 0.0000000000000000000, -95.16534122799296800 ) ) ;
#134 = AXIS2_PLACEMENT_3D ( 'NONE', #133, #132, #131 ) ;
#135 = CIRCLE ( 'NONE', #134, 23.90149999999999900 ) ;
#136 = CARTESIAN_POINT ( 'NONE',  ( 23.90149999999999900, 0.0000000000000000000, -0.8346587720068368000 ) ) ;
#137 = DIRECTION ( 'NONE',  ( 0.7071067811865514600, 0.0000000000000000000, 0.7071067811865435800 ) ) ;
#138 = VECTOR ( 'NONE', #137, 1000.000000000000000 ) ;
#139 = CARTESIAN_POINT ( 'NONE',  ( 23.90149999999999900, 0.0000000000000000000, -0.8346587720068368000 ) ) ;
#140 = LINE ( 'NONE', #139, #138 ) ;
#141 = CARTESIAN_POINT ( 'NONE',  ( 24.73615877200684600, 0.0000000000000000000, -1.087506354010172000E-016 ) ) ;
#142 = DIRECTION ( 'NONE',  ( 1.000000000000000000, 0.0000000000000000000, 0.0000000000000000000 ) ) ;
#143 = DIRECTION ( 'NONE',  ( -0.0000000000000000000, -0.0000000000000000000, 1.000000000000000000 ) ) ;
#144 = CARTESIAN_POINT ( 'NONE',  ( 0.0000000000000000000, 0.0000000000000000000, -1.087506354010172000E-016 ) ) ;
#145 = AXIS2_PLACEMENT_3D ( 'NONE', #144, #143, #142 ) ;
#146 = CIRCLE ( 'NONE', #145, 24.73615877200684600 ) ;
#147 = CARTESIAN_POINT ( 'NONE',  ( -24.73615877200684600, 3.029205720135871600E-015, -1.087506354010172000E-016 ) ) ;
#148 = DIRECTION ( 'NONE',  ( -0.7071067811865514600, 8.659274570719403500E-017, 0.7071067811865435800 ) ) ;
#149 = VECTOR ( 'NONE', #148, 1000.000000000000000 ) ;
#150 = CARTESIAN_POINT ( 'NONE',  ( -23.90149999999999900, 2.926992876588555000E-015, -0.8346587720068368000 ) ) ;
#151 = CYLINDRICAL_SURFACE ( 'NONE', #152, 23.90150000000000600 ) ;
#152 = AXIS2_PLACEMENT_3D ( 'NONE', #193, #192, #191 ) ;
#153 = FACE_OUTER_BOUND ( 'NONE', #17, .T. ) ;
#154 = DIRECTION ( 'NONE',  ( -0.0000000000000000000, -0.0000000000000000000, 1.000000000000000000 ) ) ;
#155 = VECTOR ( 'NONE', #154, 1000.000000000000000 ) ;
#156 = CARTESIAN_POINT ( 'NONE',  ( 27.80000000000000400, 0.0000000000000000000, -4.336808689942017700E-016 ) ) ;
#157 = LINE ( 'NONE', #156, #155 ) ;
#158 = CARTESIAN_POINT ( 'NONE',  ( 27.80000000000000100, 0.0000000000000000000, 0.0000000000000000000 ) ) ;
#159 = DIRECTION ( 'NONE',  ( 1.000000000000000000, 0.0000000000000000000, 0.0000000000000000000 ) ) ;
#160 = DIRECTION ( 'NONE',  ( -0.0000000000000000000, -0.0000000000000000000, 1.000000000000000000 ) ) ;
#161 = ADVANCED_FACE ( 'NONE', ( #273 ), #250, .F. ) ;
#162 = EDGE_LOOP ( 'NONE', ( #163, #164, #165, #101, #102, #104 ) ) ;
#163 = ORIENTED_EDGE ( 'NONE', *, *, #115, .F. ) ;
#164 = ORIENTED_EDGE ( 'NONE', *, *, #178, .T. ) ;
#165 = ORIENTED_EDGE ( 'NONE', *, *, #100, .T. ) ;
#166 = ORIENTED_EDGE ( 'NONE', *, *, #90, .F. ) ;
#167 = ORIENTED_EDGE ( 'NONE', *, *, #168, .F. ) ;
#168 = EDGE_CURVE ( 'NONE', #92, #91, #334, .T. ) ;
#169 = EDGE_CURVE ( 'NONE', #170, #76, #297, .T. ) ;
#170 = VERTEX_POINT ( 'NONE', #321 ) ;
#171 = ORIENTED_EDGE ( 'NONE', *, *, #172, .F. ) ;
#172 = EDGE_CURVE ( 'NONE', #173, #170, #239, .T. ) ;
#173 = VERTEX_POINT ( 'NONE', #235 ) ;
#174 = EDGE_LOOP ( 'NONE', ( #96, #62, #65, #68, #177 ) ) ;
#175 = MANIFOLD_SOLID_BREP ( 'NONE', #60 ) ;
#176 = ADVANCED_FACE ( 'NONE', ( #234 ), #309, .F. ) ;
#177 = ORIENTED_EDGE ( 'NONE', *, *, #178, .F. ) ;
#178 = EDGE_CURVE ( 'NONE', #99, #70, #288, .T. ) ;
#179 = EDGE_LOOP ( 'NONE', ( #180, #181 ) ) ;
#180 = ORIENTED_EDGE ( 'NONE', *, *, #169, .T. ) ;
#181 = ORIENTED_EDGE ( 'NONE', *, *, #182, .T. ) ;
#182 = EDGE_CURVE ( 'NONE', #76, #170, #295, .T. ) ;
#183 = ADVANCED_FACE ( 'NONE', ( #290, #289 ), #271, .F. ) ;
#184 = EDGE_LOOP ( 'NONE', ( #185, #105 ) ) ;
#185 = ORIENTED_EDGE ( 'NONE', *, *, #12, .T. ) ;
#186 = DIRECTION ( 'NONE',  ( -1.000000000000000000, 0.0000000000000000000, 0.0000000000000000000 ) ) ;
#187 = DIRECTION ( 'NONE',  ( 0.0000000000000000000, 0.0000000000000000000, -1.000000000000000000 ) ) ;
#188 = AXIS2_PLACEMENT_3D ( 'NONE', #194, #187, #186 ) ;
#189 = CONICAL_SURFACE ( 'NONE', #188, 24.73615877200704800, 0.7853981633974608200 ) ;
#190 = LINE ( 'NONE', #150, #149 ) ;
#191 = DIRECTION ( 'NONE',  ( 0.0000000000000000000, 1.000000000000000000, 0.0000000000000000000 ) ) ;
#192 = DIRECTION ( 'NONE',  ( -0.0000000000000000000, 1.152318448611169300E-016, -1.000000000000000000 ) ) ;
#193 = CARTESIAN_POINT ( 'NONE',  ( 0.0000000000000000000, 7.592810154713621800E-015, -96.00000000000008500 ) ) ;
#194 = CARTESIAN_POINT ( 'NONE',  ( 0.0000000000000000000, 0.0000000000000000000, -96.00000000000000000 ) ) ;
#195 = FACE_OUTER_BOUND ( 'NONE', #51, .T. ) ;
#196 = EDGE_LOOP ( 'NONE', ( #52, #58, #59, #55, #56 ) ) ;
#197 = ORIENTED_EDGE ( 'NONE', *, *, #106, .F. ) ;
#198 = ADVANCED_FACE ( 'NONE', ( #272 ), #266, .T. ) ;
#199 = ORIENTED_EDGE ( 'NONE', *, *, #109, .F. ) ;
#200 = ORIENTED_EDGE ( 'NONE', *, *, #66, .F. ) ;
#201 = EDGE_LOOP ( 'NONE', ( #199, #48, #208, #197 ) ) ;
#202 = ORIENTED_EDGE ( 'NONE', *, *, #203, .F. ) ;
#203 = EDGE_CURVE ( 'NONE', #67, #64, #352, .T. ) ;
#204 = ORIENTED_EDGE ( 'NONE', *, *, #205, .T. ) ;
#205 = EDGE_CURVE ( 'NONE', #206, #98, #347, .T. ) ;
#206 = VERTEX_POINT ( 'NONE', #342 ) ;
#207 = ORIENTED_EDGE ( 'NONE', *, *, #97, .T. ) ;
#208 = ORIENTED_EDGE ( 'NONE', *, *, #15, .T. ) ;
#209 = ADVANCED_FACE ( 'NONE', ( #341 ), #340, .F. ) ;
#210 = CARTESIAN_POINT ( 'NONE',  ( -27.80000000000000400, 3.404405663626209400E-015, -96.00000000000000000 ) ) ;
#211 = CARTESIAN_POINT ( 'NONE',  ( 27.80000000000000400, 0.0000000000000000000, -96.00000000000000000 ) ) ;
#212 = DIRECTION ( 'NONE',  ( 1.000000000000000000, 0.0000000000000000000, 0.0000000000000000000 ) ) ;
#213 = DIRECTION ( 'NONE',  ( -0.0000000000000000000, -0.0000000000000000000, 1.000000000000000000 ) ) ;
#214 = CARTESIAN_POINT ( 'NONE',  ( 0.0000000000000000000, 0.0000000000000000000, -96.00000000000000000 ) ) ;
#215 = AXIS2_PLACEMENT_3D ( 'NONE', #214, #213, #212 ) ;
#216 = CIRCLE ( 'NONE', #215, 27.80000000000000400 ) ;
#217 = DIRECTION ( 'NONE',  ( 1.000000000000000000, 0.0000000000000000000, 0.0000000000000000000 ) ) ;
#218 = DIRECTION ( 'NONE',  ( -0.0000000000000000000, -0.0000000000000000000, 1.000000000000000000 ) ) ;
#219 = CARTESIAN_POINT ( 'NONE',  ( 0.0000000000000000000, 0.0000000000000000000, -4.336808689942017700E-016 ) ) ;
#220 = AXIS2_PLACEMENT_3D ( 'NONE', #219, #218, #217 ) ;
#221 = CC_DESIGN_PERSON_AND_ORGANIZATION_ASSIGNMENT ( #223, #222, ( #247 ) ) ;
#222 = PERSON_AND_ORGANIZATION_ROLE ( 'design_owner' ) ;
#223 = PERSON_AND_ORGANIZATION ( #246, #224 ) ;
#224 = ORGANIZATION ( 'UNSPECIFIED', 'UNSPECIFIED', '' ) ;
#225 = DIRECTION ( 'NONE',  ( 0.0000000000000000000, 1.000000000000000000, 0.0000000000000000000 ) ) ;
#226 = DIRECTION ( 'NONE',  ( -0.0000000000000000000, 1.152318448611169300E-016, -1.000000000000000000 ) ) ;
#227 = CARTESIAN_POINT ( 'NONE',  ( 0.0000000000000000000, 7.592810154713621800E-015, -96.00000000000008500 ) ) ;
#228 = AXIS2_PLACEMENT_3D ( 'NONE', #227, #226, #225 ) ;
#229 = CIRCLE ( 'NONE', #305, 27.80000000000000100 ) ;
#230 = DIRECTION ( 'NONE',  ( -0.0000000000000000000, -0.0000000000000000000, 1.000000000000000000 ) ) ;
#231 = CARTESIAN_POINT ( 'NONE',  ( 2.926992876588555800E-015, -23.90149999999999900, -96.00000000000008500 ) ) ;
#232 = LINE ( 'NONE', #231, #245 ) ;
#233 = CARTESIAN_POINT ( 'NONE',  ( 0.0000000000000000000, 0.0000000000000000000, -96.00000000000000000 ) ) ;
#234 = FACE_OUTER_BOUND ( 'NONE', #61, .T. ) ;
#235 = CARTESIAN_POINT ( 'NONE',  ( -23.90149999999999900, 0.0000000000000000000, -95.16534122799296800 ) ) ;
#236 = DIRECTION ( 'NONE',  ( -0.7071067811865563400, 0.0000000000000000000, -0.7071067811865388000 ) ) ;
#237 = VECTOR ( 'NONE', #236, 999.9999999999998900 ) ;
#238 = CARTESIAN_POINT ( 'NONE',  ( -24.73615877200704800, 0.0000000000000000000, -96.00000000000000000 ) ) ;
#239 = LINE ( 'NONE', #238, #237 ) ;
#240 = AXIS2_PLACEMENT_3D ( 'NONE', #301, #230, #265 ) ;
#241 = DIRECTION ( 'NONE',  ( 0.0000000000000000000, -0.0000000000000000000, 1.000000000000000000 ) ) ;
#242 = CARTESIAN_POINT ( 'NONE',  ( 0.0000000000000000000, 27.80000000000000400, -96.00000000000000000 ) ) ;
#243 = DIRECTION ( 'NONE',  ( 1.000000000000000000, 0.0000000000000000000, 0.0000000000000000000 ) ) ;
#244 = DIRECTION ( 'NONE',  ( -0.0000000000000000000, 1.152318448611169300E-016, -1.000000000000000000 ) ) ;
#245 = VECTOR ( 'NONE', #244, 1000.000000000000000 ) ;
#246 = PERSON ( 'UNSPECIFIED', 'UNSPECIFIED', 'UNSPECIFIED', ('UNSPECIFIED'), ('UNSPECIFIED'), ('UNSPECIFIED') ) ;
#247 = PRODUCT ( '19-0402-08_outokumpu', '19-0402-08_outokumpu', '', ( #248 ) ) ;
#248 = MECHANICAL_CONTEXT ( 'NONE', #325, 'mechanical' ) ;
#249 = APPLICATION_PROTOCOL_DEFINITION ( 'international standard', 'config_control_design', 1994, #325 ) ;
#250 = CYLINDRICAL_SURFACE ( 'NONE', #228, 23.90150000000000600 ) ;
#251 = APPROVAL_DATE_TIME ( #252, #258 ) ;
#252 = DATE_AND_TIME ( #253, #254 ) ;
#253 = CALENDAR_DATE ( 2015, 11, 8 ) ;
#254 = LOCAL_TIME ( 11, 34, 3.000000000000000000, #255 ) ;
#255 = COORDINATED_UNIVERSAL_TIME_OFFSET ( 1, 0, .AHEAD. ) ;
#256 = APPROVAL_PERSON_ORGANIZATION ( #260, #258, #257 ) ;
#257 = APPROVAL_ROLE ( '' ) ;
#258 = APPROVAL ( #259, 'UNSPECIFIED' ) ;
#259 = APPROVAL_STATUS ( 'not_yet_approved' ) ;
#260 = PERSON_AND_ORGANIZATION ( #246, #224 ) ;
#261 = PRODUCT_DEFINITION ( 'UNKNOWN', '', #84, #262 ) ;
#262 = DESIGN_CONTEXT ( 'detailed design', #264, 'design' ) ;
#263 = APPLICATION_PROTOCOL_DEFINITION ( 'international standard', 'config_control_design', 1994, #264 ) ;
#264 = APPLICATION_CONTEXT ( 'configuration controlled 3d designs of mechanical parts and assemblies' ) ;
#265 = DIRECTION ( 'NONE',  ( 1.000000000000000000, 0.0000000000000000000, 0.0000000000000000000 ) ) ;
#266 = CYLINDRICAL_SURFACE ( 'NONE', #356, 27.80000000000000400 ) ;
#267 = DIRECTION ( 'NONE',  ( -1.000000000000000000, 0.0000000000000000000, -0.0000000000000000000 ) ) ;
#268 = DIRECTION ( 'NONE',  ( 0.0000000000000000000, 0.0000000000000000000, -1.000000000000000000 ) ) ;
#269 = CARTESIAN_POINT ( 'NONE',  ( 0.0000000000000000000, 27.80000000000000100, -2.168404344971008900E-016 ) ) ;
#270 = AXIS2_PLACEMENT_3D ( 'NONE', #269, #268, #267 ) ;
#271 = PLANE ( 'NONE',  #270 ) ;
#272 = FACE_OUTER_BOUND ( 'NONE', #201, .T. ) ;
#273 = FACE_OUTER_BOUND ( 'NONE', #162, .T. ) ;
#274 = DIRECTION ( 'NONE',  ( -0.0000000000000000000, 1.152318448611169300E-016, -1.000000000000000000 ) ) ;
#275 = VECTOR ( 'NONE', #274, 1000.000000000000000 ) ;
#276 = CARTESIAN_POINT ( 'NONE',  ( 0.0000000000000000000, 23.90150000000001300, -96.00000000000008500 ) ) ;
#277 = CIRCLE ( 'NONE', #282, 23.90149999999999900 ) ;
#278 = CARTESIAN_POINT ( 'NONE',  ( 0.0000000000000000000, 23.90149999999999900, -95.16534122799296800 ) ) ;
#279 = DIRECTION ( 'NONE',  ( 1.000000000000000000, 0.0000000000000000000, 0.0000000000000000000 ) ) ;
#280 = DIRECTION ( 'NONE',  ( -0.0000000000000000000, -0.0000000000000000000, 1.000000000000000000 ) ) ;
#281 = CARTESIAN_POINT ( 'NONE',  ( 0.0000000000000000000, 0.0000000000000000000, -95.16534122799296800 ) ) ;
#282 = AXIS2_PLACEMENT_3D ( 'NONE', #281, #280, #279 ) ;
#283 = LINE ( 'NONE', #312, #311 ) ;
#284 = DIRECTION ( 'NONE',  ( 1.000000000000000000, 0.0000000000000000000, 0.0000000000000000000 ) ) ;
#285 = DIRECTION ( 'NONE',  ( -0.0000000000000000000, -0.0000000000000000000, 1.000000000000000000 ) ) ;
#286 = CARTESIAN_POINT ( 'NONE',  ( 0.0000000000000000000, 0.0000000000000000000, -0.8346587720068368000 ) ) ;
#287 = AXIS2_PLACEMENT_3D ( 'NONE', #286, #285, #284 ) ;
#288 = CIRCLE ( 'NONE', #287, 23.90149999999999900 ) ;
#289 = FACE_BOUND ( 'NONE', #107, .T. ) ;
#290 = FACE_OUTER_BOUND ( 'NONE', #184, .T. ) ;
#291 = DIRECTION ( 'NONE',  ( 1.000000000000000000, 0.0000000000000000000, 0.0000000000000000000 ) ) ;
#292 = DIRECTION ( 'NONE',  ( -0.0000000000000000000, -0.0000000000000000000, 1.000000000000000000 ) ) ;
#293 = CARTESIAN_POINT ( 'NONE',  ( 0.0000000000000000000, 0.0000000000000000000, -96.00000000000000000 ) ) ;
#294 = AXIS2_PLACEMENT_3D ( 'NONE', #293, #292, #291 ) ;
#295 = CIRCLE ( 'NONE', #294, 24.73615877200704800 ) ;
#296 = CARTESIAN_POINT ( 'NONE',  ( 0.0000000000000000000, 0.0000000000000000000, -96.00000000000000000 ) ) ;
#297 = CIRCLE ( 'NONE', #324, 24.73615877200704800 ) ;
#298 = DIRECTION ( 'NONE',  ( 1.000000000000000000, 0.0000000000000000000, 0.0000000000000000000 ) ) ;
#299 = PLANE ( 'NONE',  #316 ) ;
#300 = CARTESIAN_POINT ( 'NONE',  ( -27.80000000000000100, 3.404405663626209000E-015, 0.0000000000000000000 ) ) ;
#301 = CARTESIAN_POINT ( 'NONE',  ( 0.0000000000000000000, 0.0000000000000000000, -95.16534122799296800 ) ) ;
#302 = FACE_BOUND ( 'NONE', #179, .T. ) ;
#303 = FACE_OUTER_BOUND ( 'NONE', #113, .T. ) ;
#304 = LINE ( 'NONE', #276, #275 ) ;
#305 = AXIS2_PLACEMENT_3D ( 'NONE', #315, #314, #313 ) ;
#306 = DIRECTION ( 'NONE',  ( -1.000000000000000000, 0.0000000000000000000, 0.0000000000000000000 ) ) ;
#307 = DIRECTION ( 'NONE',  ( 0.0000000000000000000, 0.0000000000000000000, -1.000000000000000000 ) ) ;
#308 = AXIS2_PLACEMENT_3D ( 'NONE', #233, #307, #306 ) ;
#309 = CONICAL_SURFACE ( 'NONE', #308, 24.73615877200704800, 0.7853981633974608200 ) ;
#310 = DIRECTION ( 'NONE',  ( -0.0000000000000000000, -0.0000000000000000000, 1.000000000000000000 ) ) ;
#311 = VECTOR ( 'NONE', #310, 1000.000000000000000 ) ;
#312 = CARTESIAN_POINT ( 'NONE',  ( -27.80000000000000400, 3.404405663626209400E-015, -4.336808689942017700E-016 ) ) ;
#313 = DIRECTION ( 'NONE',  ( 1.000000000000000000, 0.0000000000000000000, 0.0000000000000000000 ) ) ;
#314 = DIRECTION ( 'NONE',  ( -0.0000000000000000000, -0.0000000000000000000, 1.000000000000000000 ) ) ;
#315 = CARTESIAN_POINT ( 'NONE',  ( 0.0000000000000000000, 0.0000000000000000000, 0.0000000000000000000 ) ) ;
#316 = AXIS2_PLACEMENT_3D ( 'NONE', #242, #241, #243 ) ;
#317 = UNCERTAINTY_MEASURE_WITH_UNIT (LENGTH_MEASURE( 1.000000000000000100E-005 ), #320, 'distance_accuracy_value', 'NONE');
#318 =( NAMED_UNIT ( * ) SI_UNIT ( $, .STERADIAN. ) SOLID_ANGLE_UNIT ( ) );
#319 =( NAMED_UNIT ( * ) PLANE_ANGLE_UNIT ( ) SI_UNIT ( $, .RADIAN. ) );
#320 =( LENGTH_UNIT ( ) NAMED_UNIT ( * ) SI_UNIT ( .MILLI., .METRE. ) );
#321 = CARTESIAN_POINT ( 'NONE',  ( -24.73615877200704800, 0.0000000000000000000, -96.00000000000000000 ) ) ;
#322 = DIRECTION ( 'NONE',  ( 1.000000000000000000, 0.0000000000000000000, 0.0000000000000000000 ) ) ;
#323 = DIRECTION ( 'NONE',  ( -0.0000000000000000000, -0.0000000000000000000, 1.000000000000000000 ) ) ;
#324 = AXIS2_PLACEMENT_3D ( 'NONE', #296, #323, #322 ) ;
#325 = APPLICATION_CONTEXT ( 'configuration controlled 3d designs of mechanical parts and assemblies' ) ;
#326 = DIRECTION ( 'NONE',  ( 1.000000000000000000, 0.0000000000000000000, 0.0000000000000000000 ) ) ;
#327 = DIRECTION ( 'NONE',  ( 0.0000000000000000000, 0.0000000000000000000, 1.000000000000000000 ) ) ;
#328 = CARTESIAN_POINT ( 'NONE',  ( 0.0000000000000000000, 0.0000000000000000000, 0.0000000000000000000 ) ) ;
#329 = ADVANCED_BREP_SHAPE_REPRESENTATION ( '19-0402-08_outokumpu', ( #175, #339 ), #330 ) ;
#330 =( GEOMETRIC_REPRESENTATION_CONTEXT ( 3 ) GLOBAL_UNCERTAINTY_ASSIGNED_CONTEXT ( ( #317 ) ) GLOBAL_UNIT_ASSIGNED_CONTEXT ( ( #320, #319, #318 ) ) REPRESENTATION_CONTEXT ( 'NONE', 'WORKASPACE' ) );
#331 = DIRECTION ( 'NONE',  ( -0.0000000000000000000, -0.0000000000000000000, 1.000000000000000000 ) ) ;
#332 = CARTESIAN_POINT ( 'NONE',  ( 0.0000000000000000000, 0.0000000000000000000, -96.00000000000000000 ) ) ;
#333 = AXIS2_PLACEMENT_3D ( 'NONE', #332, #331, #298 ) ;
#334 = CIRCLE ( 'NONE', #333, 27.80000000000000400 ) ;
#335 = DIRECTION ( 'NONE',  ( 1.000000000000000000, 0.0000000000000000000, 0.0000000000000000000 ) ) ;
#336 = DIRECTION ( 'NONE',  ( -0.0000000000000000000, -0.0000000000000000000, 1.000000000000000000 ) ) ;
#337 = CARTESIAN_POINT ( 'NONE',  ( 0.0000000000000000000, 0.0000000000000000000, -0.8346587720068368000 ) ) ;
#338 = AXIS2_PLACEMENT_3D ( 'NONE', #337, #336, #335 ) ;
#339 = AXIS2_PLACEMENT_3D ( 'NONE', #328, #327, #326 ) ;
#340 = CONICAL_SURFACE ( 'NONE', #338, 23.90149999999999900, 0.7853981633974538300 ) ;
#341 = FACE_OUTER_BOUND ( 'NONE', #196, .T. ) ;
#342 = CARTESIAN_POINT ( 'NONE',  ( 0.0000000000000000000, 23.90149999999999900, -0.8346587720068368000 ) ) ;
#343 = DIRECTION ( 'NONE',  ( 1.000000000000000000, 0.0000000000000000000, 0.0000000000000000000 ) ) ;
#344 = DIRECTION ( 'NONE',  ( -0.0000000000000000000, -0.0000000000000000000, 1.000000000000000000 ) ) ;
#345 = CARTESIAN_POINT ( 'NONE',  ( 0.0000000000000000000, 0.0000000000000000000, -0.8346587720068368000 ) ) ;
#346 = AXIS2_PLACEMENT_3D ( 'NONE', #345, #344, #343 ) ;
#347 = CIRCLE ( 'NONE', #346, 23.90149999999999900 ) ;
#348 = DIRECTION ( 'NONE',  ( 1.000000000000000000, 0.0000000000000000000, 0.0000000000000000000 ) ) ;
#349 = DIRECTION ( 'NONE',  ( -0.0000000000000000000, -0.0000000000000000000, 1.000000000000000000 ) ) ;
#350 = CARTESIAN_POINT ( 'NONE',  ( 0.0000000000000000000, 0.0000000000000000000, -1.087506354010172000E-016 ) ) ;
#351 = AXIS2_PLACEMENT_3D ( 'NONE', #350, #349, #348 ) ;
#352 = CIRCLE ( 'NONE', #351, 24.73615877200684600 ) ;
#353 = DIRECTION ( 'NONE',  ( 1.000000000000000000, 0.0000000000000000000, 0.0000000000000000000 ) ) ;
#354 = DIRECTION ( 'NONE',  ( -0.0000000000000000000, -0.0000000000000000000, 1.000000000000000000 ) ) ;
#355 = CARTESIAN_POINT ( 'NONE',  ( 0.0000000000000000000, 0.0000000000000000000, -4.336808689942017700E-016 ) ) ;
#356 = AXIS2_PLACEMENT_3D ( 'NONE', #355, #354, #353 ) ;
#357 = CIRCLE ( 'NONE', #240, 23.90149999999999900 ) ;
#358 = PERSON_AND_ORGANIZATION_ROLE ( 'creator' ) ;
#359 = PERSON_AND_ORGANIZATION_ROLE ( 'design_supplier' ) ;
#360 = CC_DESIGN_PERSON_AND_ORGANIZATION_ASSIGNMENT ( #361, #358, ( #84 ) ) ;
#361 = PERSON_AND_ORGANIZATION ( #246, #224 ) ;
#362 = CC_DESIGN_PERSON_AND_ORGANIZATION_ASSIGNMENT ( #386, #385, ( #377 ) ) ;
#363 = PERSON_AND_ORGANIZATION ( #246, #224 ) ;
#364 = CC_DESIGN_DATE_AND_TIME_ASSIGNMENT ( #366, #365, ( #377 ) ) ;
#365 = DATE_TIME_ROLE ( 'classification_date' ) ;
#366 = DATE_AND_TIME ( #367, #388 ) ;
#367 = CALENDAR_DATE ( 2015, 11, 8 ) ;
#368 = CC_DESIGN_SECURITY_CLASSIFICATION ( #377, ( #84 ) ) ;
#369 = CC_DESIGN_APPROVAL ( #382, ( #377 ) ) ;
#370 = APPROVAL_DATE_TIME ( #371, #382 ) ;
#371 = DATE_AND_TIME ( #372, #373 ) ;
#372 = CALENDAR_DATE ( 2015, 11, 8 ) ;
#373 = LOCAL_TIME ( 11, 34, 3.000000000000000000, #374 ) ;
#374 = COORDINATED_UNIVERSAL_TIME_OFFSET ( 1, 0, .AHEAD. ) ;
#375 = APPROVAL_PERSON_ORGANIZATION ( #363, #382, #381 ) ;
#376 = SECURITY_CLASSIFICATION_LEVEL ( 'unclassified' ) ;
#377 = SECURITY_CLASSIFICATION ( '', '', #376 ) ;
#378 = SHAPE_DEFINITION_REPRESENTATION ( #379, #329 ) ;
#379 = PRODUCT_DEFINITION_SHAPE ( 'NONE', 'NONE',  #261 ) ;
#380 = PERSON_AND_ORGANIZATION ( #246, #224 ) ;
#381 = APPROVAL_ROLE ( '' ) ;
#382 = APPROVAL ( #383, 'UNSPECIFIED' ) ;
#383 = APPROVAL_STATUS ( 'not_yet_approved' ) ;
#384 = CC_DESIGN_PERSON_AND_ORGANIZATION_ASSIGNMENT ( #380, #359, ( #84 ) ) ;
#385 = PERSON_AND_ORGANIZATION_ROLE ( 'classification_officer' ) ;
#386 = PERSON_AND_ORGANIZATION ( #246, #224 ) ;
#387 = PRODUCT_RELATED_PRODUCT_CATEGORY ( 'detail', '', ( #247 ) ) ;
#388 = LOCAL_TIME ( 11, 34, 3.000000000000000000, #389 ) ;
#389 = COORDINATED_UNIVERSAL_TIME_OFFSET ( 1, 0, .AHEAD. ) ;
ENDSEC;
END-ISO-10303-21;
