ISO-10303-21;
HEADER;
FILE_DESCRIPTION (( 'STEP AP203' ),
    '1' );
FILE_NAME ('3D_GT3512_12x25_188734005.STEP',
    '2024-10-21T10:41:31',
    ( '' ),
    ( '' ),
    'SwSTEP 2.0',
    'SolidWorks 2023',
    '' );
FILE_SCHEMA (( 'CONFIG_CONTROL_DESIGN' ));
ENDSEC;

DATA;
#1 = CALENDAR_DATE ( 2024, 21, 10 ) ;
#2 = EDGE_CURVE ( 'NONE', #40, #5, #122, .T. ) ;
#3 = CALENDAR_DATE ( 2024, 21, 10 ) ;
#4 = VECTOR ( 'NONE', #25, 1000.000000000000000 ) ;
#5 = VERTEX_POINT ( 'NONE', #187 ) ;
#6 = CLOSED_SHELL ( 'NONE', ( #136, #94, #76, #155 ) ) ;
#7 = ORIENTED_EDGE ( 'NONE', *, *, #2, .F. ) ;
#8 = DIRECTION ( 'NONE',  ( -1.000000000000000000, -3.430248998885766176E-15, 0.000000000000000000 ) ) ;
#9 = AXIS2_PLACEMENT_3D ( 'NONE', #26, #27, #81 ) ;
#10 = LINE ( 'NONE', #178, #4 ) ;
#11 = DIRECTION ( 'NONE',  ( 3.430248998885766176E-15, -1.000000000000000000, -0.000000000000000000 ) ) ;
#12 = CC_DESIGN_PERSON_AND_ORGANIZATION_ASSIGNMENT ( #67, #47, ( #17 ) ) ;
#13 = DIRECTION ( 'NONE',  ( -1.224646799147353207E-16, -4.200843456763866711E-31, -1.000000000000000000 ) ) ;
#14 = PRODUCT_DEFINITION_SHAPE ( 'NONE', 'NONE',  #114 ) ;
#15 = PERSON_AND_ORGANIZATION_ROLE ( 'creator' ) ;
#16 = APPROVAL ( #119, 'UNSPECIFIED' ) ;
#17 = PRODUCT_DEFINITION_FORMATION_WITH_SPECIFIED_SOURCE ( 'ANY', '', #163, .NOT_KNOWN. ) ;
#18 = DATE_AND_TIME ( #35, #170 ) ;
#19 = APPLICATION_PROTOCOL_DEFINITION ( 'international standard', 'config_control_design', 1994, #32 ) ;
#20 = EDGE_LOOP ( 'NONE', ( #7, #93, #139, #171 ) ) ;
#21 = EDGE_CURVE ( 'NONE', #40, #37, #144, .T. ) ;
#22 = AXIS2_PLACEMENT_3D ( 'NONE', #185, #42, #173 ) ;
#23 = ORIENTED_EDGE ( 'NONE', *, *, #58, .F. ) ;
#24 = CYLINDRICAL_SURFACE ( 'NONE', #29, 5.999999999999996447 ) ;
#25 = DIRECTION ( 'NONE',  ( 3.430248998885766176E-15, -1.000000000000000000, -0.000000000000000000 ) ) ;
#26 = CARTESIAN_POINT ( 'NONE',  ( 3.761561690802638698E-14, -10.96585609973063491, 0.000000000000000000 ) ) ;
#27 = DIRECTION ( 'NONE',  ( 3.430248998885766176E-15, -1.000000000000000000, -0.000000000000000000 ) ) ;
#28 = FACE_OUTER_BOUND ( 'NONE', #153, .T. ) ;
#29 = AXIS2_PLACEMENT_3D ( 'NONE', #175, #11, #112 ) ;
#30 = CC_DESIGN_PERSON_AND_ORGANIZATION_ASSIGNMENT ( #179, #118, ( #114 ) ) ;
#31 = DIRECTION ( 'NONE',  ( 0.000000000000000000, 0.000000000000000000, 1.000000000000000000 ) ) ;
#32 = APPLICATION_CONTEXT ( 'configuration controlled 3d designs of mechanical parts and assemblies' ) ;
#33 = APPLICATION_CONTEXT ( 'configuration controlled 3d designs of mechanical parts and assemblies' ) ;
#34 = CARTESIAN_POINT ( 'NONE',  ( 0.000000000000000000, 0.000000000000000000, 0.000000000000000000 ) ) ;
#35 = CALENDAR_DATE ( 2024, 21, 10 ) ;
#36 = DATE_AND_TIME ( #85, #92 ) ;
#37 = VERTEX_POINT ( 'NONE', #84 ) ;
#38 = ORIENTED_EDGE ( 'NONE', *, *, #2, .T. ) ;
#39 = CC_DESIGN_APPROVAL ( #16, ( #17 ) ) ;
#40 = VERTEX_POINT ( 'NONE', #154 ) ;
#41 = CARTESIAN_POINT ( 'NONE',  ( 0.000000000000000000, 0.000000000000000000, 0.000000000000000000 ) ) ;
#42 = DIRECTION ( 'NONE',  ( -0.000000000000000000, 0.000000000000000000, -1.000000000000000000 ) ) ;
#43 = UNCERTAINTY_MEASURE_WITH_UNIT (LENGTH_MEASURE( 1.000000000000000082E-05 ), #125, 'distance_accuracy_value', 'NONE');
#44 = CARTESIAN_POINT ( 'NONE',  ( 0.000000000000000000, 0.000000000000000000, 0.000000000000000000 ) ) ;
#45 = PERSON_AND_ORGANIZATION ( #99, #71 ) ;
#46 = PERSON_AND_ORGANIZATION_ROLE ( 'design_owner' ) ;
#47 = PERSON_AND_ORGANIZATION_ROLE ( 'design_supplier' ) ;
#48 = APPROVAL_DATE_TIME ( #101, #164 ) ;
#49 = ORIENTED_EDGE ( 'NONE', *, *, #121, .T. ) ;
#50 = CARTESIAN_POINT ( 'NONE',  ( 3.761561690802638698E-14, -10.96585609973063491, 0.000000000000000000 ) ) ;
#51 = CYLINDRICAL_SURFACE ( 'NONE', #149, 5.999999999999996447 ) ;
#52 = FACE_OUTER_BOUND ( 'NONE', #150, .T. ) ;
#53 = APPROVAL_ROLE ( '' ) ;
#54 = AXIS2_PLACEMENT_3D ( 'NONE', #50, #128, #62 ) ;
#55 = DATE_AND_TIME ( #134, #141 ) ;
#56 = COORDINATED_UNIVERSAL_TIME_OFFSET ( 1, 0, .AHEAD. ) ;
#57 = LOCAL_TIME ( 12, 41, 31.00000000000000000, #104 ) ;
#58 = EDGE_CURVE ( 'NONE', #5, #172, #166, .T. ) ;
#59 = ORIENTED_EDGE ( 'NONE', *, *, #129, .T. ) ;
#60 = FACE_OUTER_BOUND ( 'NONE', #72, .T. ) ;
#61 = AXIS2_PLACEMENT_3D ( 'NONE', #143, #100, #8 ) ;
#62 = DIRECTION ( 'NONE',  ( 1.000000000000000000, 3.469446951953594862E-15, 0.000000000000000000 ) ) ;
#63 =( NAMED_UNIT ( * ) SI_UNIT ( $, .STERADIAN. ) SOLID_ANGLE_UNIT ( ) );
#64 = CC_DESIGN_PERSON_AND_ORGANIZATION_ASSIGNMENT ( #106, #46, ( #163 ) ) ;
#65 = AXIS2_PLACEMENT_3D ( 'NONE', #186, #156, #66 ) ;
#66 = DIRECTION ( 'NONE',  ( 1.000000000000000000, 3.469446951953637855E-15, 0.000000000000000000 ) ) ;
#67 = PERSON_AND_ORGANIZATION ( #99, #71 ) ;
#68 = APPROVAL_ROLE ( '' ) ;
#69 = SECURITY_CLASSIFICATION_LEVEL ( 'unclassified' ) ;
#70 = SECURITY_CLASSIFICATION ( '', '', #69 ) ;
#71 = ORGANIZATION ( 'UNSPECIFIED', 'UNSPECIFIED', '' ) ;
#72 = EDGE_LOOP ( 'NONE', ( #110, #108, #49, #59 ) ) ;
#73 = CC_DESIGN_DATE_AND_TIME_ASSIGNMENT ( #130, #131, ( #70 ) ) ;
#74 = CC_DESIGN_APPROVAL ( #82, ( #70 ) ) ;
#75 = ORIENTED_EDGE ( 'NONE', *, *, #21, .T. ) ;
#76 = ADVANCED_FACE ( 'NONE', ( #28 ), #142, .T. ) ;
#77 = ORIENTED_EDGE ( 'NONE', *, *, #138, .F. ) ;
#78 = AXIS2_PLACEMENT_3D ( 'NONE', #34, #31, #147 ) ;
#79 = MANIFOLD_SOLID_BREP ( 'Rotation1', #6 ) ;
#80 = CARTESIAN_POINT ( 'NONE',  ( 6.000000000000071054, -10.96585609973061359, -7.347880794884205525E-16 ) ) ;
#81 = DIRECTION ( 'NONE',  ( 1.000000000000000000, 3.469446951953594862E-15, 0.000000000000000000 ) ) ;
#82 = APPROVAL ( #180, 'UNSPECIFIED' ) ;
#83 = AXIS2_PLACEMENT_3D ( 'NONE', #184, #13, #161 ) ;
#84 = CARTESIAN_POINT ( 'NONE',  ( -5.999999999999996447, -10.96585609973065623, 0.000000000000000000 ) ) ;
#85 = CALENDAR_DATE ( 2024, 21, 10 ) ;
#86 = APPLICATION_PROTOCOL_DEFINITION ( 'international standard', 'config_control_design', 1994, #33 ) ;
#87 = APPROVAL_STATUS ( 'not_yet_approved' ) ;
#88 = ADVANCED_BREP_SHAPE_REPRESENTATION ( '3D_GT3512_12x25_188734005', ( #79, #78 ), #97 ) ;
#89 = CIRCLE ( 'NONE', #9, 6.000000000000033751 ) ;
#90 = ORIENTED_EDGE ( 'NONE', *, *, #129, .F. ) ;
#91 = ORIENTED_EDGE ( 'NONE', *, *, #102, .T. ) ;
#92 = LOCAL_TIME ( 12, 41, 31.00000000000000000, #132 ) ;
#93 = ORIENTED_EDGE ( 'NONE', *, *, #169, .T. ) ;
#94 = ADVANCED_FACE ( 'NONE', ( #52 ), #95, .T. ) ;
#95 = SPHERICAL_SURFACE ( 'NONE', #22, 12.49999999999999822 ) ;
#96 = CARTESIAN_POINT ( 'NONE',  ( -5.999999999999996447, -2.058149399331458522E-14, 7.347880794884115792E-16 ) ) ;
#97 =( GEOMETRIC_REPRESENTATION_CONTEXT ( 3 ) GLOBAL_UNCERTAINTY_ASSIGNED_CONTEXT ( ( #43 ) ) GLOBAL_UNIT_ASSIGNED_CONTEXT ( ( #125, #189, #63 ) ) REPRESENTATION_CONTEXT ( 'NONE', 'WORKASPACE' ) );
#98 = DIRECTION ( 'NONE',  ( 3.430248998885766176E-15, -1.000000000000000000, -0.000000000000000000 ) ) ;
#99 = PERSON ( 'UNSPECIFIED', 'UNSPECIFIED', 'UNSPECIFIED', ('UNSPECIFIED'), ('UNSPECIFIED'), ('UNSPECIFIED') ) ;
#100 = DIRECTION ( 'NONE',  ( -0.000000000000000000, 0.000000000000000000, -1.000000000000000000 ) ) ;
#101 = DATE_AND_TIME ( #3, #57 ) ;
#102 = EDGE_CURVE ( 'NONE', #5, #40, #126, .T. ) ;
#103 = PERSON_AND_ORGANIZATION ( #99, #71 ) ;
#104 = COORDINATED_UNIVERSAL_TIME_OFFSET ( 1, 0, .AHEAD. ) ;
#105 = DATE_TIME_ROLE ( 'creation_date' ) ;
#106 = PERSON_AND_ORGANIZATION ( #99, #71 ) ;
#107 = ORIENTED_EDGE ( 'NONE', *, *, #58, .T. ) ;
#108 = ORIENTED_EDGE ( 'NONE', *, *, #102, .F. ) ;
#109 = DESIGN_CONTEXT ( 'detailed design', #33, 'design' ) ;
#110 = ORIENTED_EDGE ( 'NONE', *, *, #169, .F. ) ;
#111 = DIRECTION ( 'NONE',  ( 3.430248998885766176E-15, -1.000000000000000000, -0.000000000000000000 ) ) ;
#112 = DIRECTION ( 'NONE',  ( 1.000000000000000000, 3.430248998885766176E-15, 0.000000000000000000 ) ) ;
#113 = AXIS2_PLACEMENT_3D ( 'NONE', #140, #115, #123 ) ;
#114 = PRODUCT_DEFINITION ( 'UNKNOWN', '', #17, #109 ) ;
#115 = DIRECTION ( 'NONE',  ( 3.430248998885766176E-15, -1.000000000000000000, -0.000000000000000000 ) ) ;
#116 = APPROVAL_DATE_TIME ( #18, #82 ) ;
#117 = CC_DESIGN_PERSON_AND_ORGANIZATION_ASSIGNMENT ( #165, #15, ( #17 ) ) ;
#118 = PERSON_AND_ORGANIZATION_ROLE ( 'creator' ) ;
#119 = APPROVAL_STATUS ( 'not_yet_approved' ) ;
#120 = CC_DESIGN_APPROVAL ( #164, ( #114 ) ) ;
#121 = EDGE_CURVE ( 'NONE', #5, #172, #10, .T. ) ;
#122 = CIRCLE ( 'NONE', #113, 5.999999999999959144 ) ;
#123 = DIRECTION ( 'NONE',  ( 1.000000000000000000, 3.469446951953637855E-15, 0.000000000000000000 ) ) ;
#124 = DIRECTION ( 'NONE',  ( 0.000000000000000000, 0.000000000000000000, 1.000000000000000000 ) ) ;
#125 =( LENGTH_UNIT ( ) NAMED_UNIT ( * ) SI_UNIT ( .MILLI., .METRE. ) );
#126 = CIRCLE ( 'NONE', #65, 5.999999999999959144 ) ;
#127 = LOCAL_TIME ( 12, 41, 31.00000000000000000, #148 ) ;
#128 = DIRECTION ( 'NONE',  ( 3.430248998885766176E-15, -1.000000000000000000, -0.000000000000000000 ) ) ;
#129 = EDGE_CURVE ( 'NONE', #172, #37, #89, .T. ) ;
#130 = DATE_AND_TIME ( #1, #127 ) ;
#131 = DATE_TIME_ROLE ( 'classification_date' ) ;
#132 = COORDINATED_UNIVERSAL_TIME_OFFSET ( 1, 0, .AHEAD. ) ;
#133 = PERSON_AND_ORGANIZATION ( #99, #71 ) ;
#134 = CALENDAR_DATE ( 2024, 21, 10 ) ;
#135 = APPROVAL_PERSON_ORGANIZATION ( #133, #82, #53 ) ;
#136 = ADVANCED_FACE ( 'NONE', ( #177 ), #24, .F. ) ;
#137 = AXIS2_PLACEMENT_3D ( 'NONE', #41, #124, #174 ) ;
#138 = EDGE_CURVE ( 'NONE', #37, #172, #145, .T. ) ;
#139 = ORIENTED_EDGE ( 'NONE', *, *, #138, .T. ) ;
#140 = CARTESIAN_POINT ( 'NONE',  ( -3.761561690802652582E-14, 10.96585609973067577, 0.000000000000000000 ) ) ;
#141 = LOCAL_TIME ( 12, 41, 31.00000000000000000, #56 ) ;
#142 = SPHERICAL_SURFACE ( 'NONE', #61, 12.49999999999999822 ) ;
#143 = CARTESIAN_POINT ( 'NONE',  ( 0.000000000000000000, 0.000000000000000000, 0.000000000000000000 ) ) ;
#144 = CIRCLE ( 'NONE', #137, 12.49999999999999822 ) ;
#145 = CIRCLE ( 'NONE', #54, 6.000000000000033751 ) ;
#146 = APPROVAL_DATE_TIME ( #36, #16 ) ;
#147 = DIRECTION ( 'NONE',  ( 1.000000000000000000, 0.000000000000000000, 0.000000000000000000 ) ) ;
#148 = COORDINATED_UNIVERSAL_TIME_OFFSET ( 1, 0, .AHEAD. ) ;
#149 = AXIS2_PLACEMENT_3D ( 'NONE', #44, #98, #158 ) ;
#150 = EDGE_LOOP ( 'NONE', ( #38, #107, #77, #151 ) ) ;
#151 = ORIENTED_EDGE ( 'NONE', *, *, #21, .F. ) ;
#152 = CC_DESIGN_DATE_AND_TIME_ASSIGNMENT ( #55, #105, ( #114 ) ) ;
#153 = EDGE_LOOP ( 'NONE', ( #23, #91, #75, #90 ) ) ;
#154 = CARTESIAN_POINT ( 'NONE',  ( -5.999999999999996447, 10.96585609973065623, 0.000000000000000000 ) ) ;
#155 = ADVANCED_FACE ( 'NONE', ( #60 ), #51, .F. ) ;
#156 = DIRECTION ( 'NONE',  ( 3.430248998885766176E-15, -1.000000000000000000, -0.000000000000000000 ) ) ;
#157 = VECTOR ( 'NONE', #111, 1000.000000000000000 ) ;
#158 = DIRECTION ( 'NONE',  ( 1.000000000000000000, 3.430248998885766176E-15, 0.000000000000000000 ) ) ;
#159 = LINE ( 'NONE', #96, #157 ) ;
#160 = PRODUCT_RELATED_PRODUCT_CATEGORY ( 'detail', '', ( #163 ) ) ;
#161 = DIRECTION ( 'NONE',  ( -1.000000000000000000, 0.000000000000000000, 1.224646799147353207E-16 ) ) ;
#162 = SHAPE_DEFINITION_REPRESENTATION ( #14, #88 ) ;
#163 = PRODUCT ( '3D_GT3512_12x25_188734005', '3D_GT3512_12x25_188734005', '', ( #181 ) ) ;
#164 = APPROVAL ( #87, 'UNSPECIFIED' ) ;
#165 = PERSON_AND_ORGANIZATION ( #99, #71 ) ;
#166 = CIRCLE ( 'NONE', #83, 12.49999999999999822 ) ;
#167 = COORDINATED_UNIVERSAL_TIME_OFFSET ( 1, 0, .AHEAD. ) ;
#168 = APPROVAL_ROLE ( '' ) ;
#169 = EDGE_CURVE ( 'NONE', #40, #37, #159, .T. ) ;
#170 = LOCAL_TIME ( 12, 41, 31.00000000000000000, #167 ) ;
#171 = ORIENTED_EDGE ( 'NONE', *, *, #121, .F. ) ;
#172 = VERTEX_POINT ( 'NONE', #80 ) ;
#173 = DIRECTION ( 'NONE',  ( -1.000000000000000000, -3.430248998885766176E-15, 0.000000000000000000 ) ) ;
#174 = DIRECTION ( 'NONE',  ( 1.000000000000000000, 0.000000000000000000, 0.000000000000000000 ) ) ;
#175 = CARTESIAN_POINT ( 'NONE',  ( 0.000000000000000000, 0.000000000000000000, 0.000000000000000000 ) ) ;
#176 = APPROVAL_PERSON_ORGANIZATION ( #45, #16, #168 ) ;
#177 = FACE_OUTER_BOUND ( 'NONE', #20, .T. ) ;
#178 = CARTESIAN_POINT ( 'NONE',  ( 5.999999999999996447, 2.058149399331458522E-14, 0.000000000000000000 ) ) ;
#179 = PERSON_AND_ORGANIZATION ( #99, #71 ) ;
#180 = APPROVAL_STATUS ( 'not_yet_approved' ) ;
#181 = MECHANICAL_CONTEXT ( 'NONE', #32, 'mechanical' ) ;
#182 = CC_DESIGN_PERSON_AND_ORGANIZATION_ASSIGNMENT ( #190, #191, ( #70 ) ) ;
#183 = APPROVAL_PERSON_ORGANIZATION ( #103, #164, #68 ) ;
#184 = CARTESIAN_POINT ( 'NONE',  ( 0.000000000000000000, 0.000000000000000000, 0.000000000000000000 ) ) ;
#185 = CARTESIAN_POINT ( 'NONE',  ( 0.000000000000000000, 0.000000000000000000, 0.000000000000000000 ) ) ;
#186 = CARTESIAN_POINT ( 'NONE',  ( -3.761561690802652582E-14, 10.96585609973067577, 0.000000000000000000 ) ) ;
#187 = CARTESIAN_POINT ( 'NONE',  ( 5.999999999999921840, 10.96585609973069708, -7.347880794884114806E-16 ) ) ;
#188 = CC_DESIGN_SECURITY_CLASSIFICATION ( #70, ( #17 ) ) ;
#189 =( NAMED_UNIT ( * ) PLANE_ANGLE_UNIT ( ) SI_UNIT ( $, .RADIAN. ) );
#190 = PERSON_AND_ORGANIZATION ( #99, #71 ) ;
#191 = PERSON_AND_ORGANIZATION_ROLE ( 'classification_officer' ) ;
ENDSEC;
END-ISO-10303-21;
