ISO-10303-21;
HEADER;
FILE_DESCRIPTION (( 'STEP AP203' ),
    '1' );
FILE_NAME ('3D_R175_DN21.3x2_17336155.STEP',
    '2024-07-18T09:59:15',
    ( '' ),
    ( '' ),
    'SwSTEP 2.0',
    'SolidWorks 2024',
    '' );
FILE_SCHEMA (( 'CONFIG_CONTROL_DESIGN' ));
ENDSEC;

DATA;
#1 = DIRECTION ( 'NONE',  ( 4.596983092540348438E-18, 1.000000000000000000, -0.000000000000000000 ) ) ;
#2 = DIRECTION ( 'NONE',  ( 1.000000000000000000, -4.596983092540343816E-18, 0.000000000000000000 ) ) ;
#3 = ORIENTED_EDGE ( 'NONE', *, *, #58, .F. ) ;
#4 = DIRECTION ( 'NONE',  ( 4.596983092540343816E-18, 1.000000000000000000, -0.000000000000000000 ) ) ;
#5 = CIRCLE ( 'NONE', #31, 13.04000000000000092 ) ;
#6 = VERTEX_POINT ( 'NONE', #67 ) ;
#7 = CC_DESIGN_SECURITY_CLASSIFICATION ( #223, ( #132 ) ) ;
#8 = CARTESIAN_POINT ( 'NONE',  ( 8.650000000000012790, 2817.965330118411202, 1.059319481262460570E-15 ) ) ;
#9 = VERTEX_POINT ( 'NONE', #312 ) ;
#10 = APPLICATION_PROTOCOL_DEFINITION ( 'international standard', 'config_control_design', 1994, #129 ) ;
#11 = EDGE_LOOP ( 'NONE', ( #174, #204, #25, #142 ) ) ;
#12 = DIRECTION ( 'NONE',  ( 1.000000000000000000, 0.000000000000000000, 1.224646799147353207E-16 ) ) ;
#13 = DIRECTION ( 'NONE',  ( 4.596983092540343816E-18, 1.000000000000000000, -0.000000000000000000 ) ) ;
#14 = EDGE_LOOP ( 'NONE', ( #287, #232 ) ) ;
#15 = DIRECTION ( 'NONE',  ( 4.596983092540343816E-18, 1.000000000000000000, -0.000000000000000000 ) ) ;
#16 = ADVANCED_FACE ( 'NONE', ( #61 ), #305, .T. ) ;
#17 = PERSON_AND_ORGANIZATION_ROLE ( 'design_owner' ) ;
#18 = CARTESIAN_POINT ( 'NONE',  ( 9.545314885652656179E-16, 6.718027464605813570, 0.000000000000000000 ) ) ;
#19 = PERSON_AND_ORGANIZATION ( #201, #184 ) ;
#20 = AXIS2_PLACEMENT_3D ( 'NONE', #349, #122, #203 ) ;
#21 = PERSON_AND_ORGANIZATION_ROLE ( 'classification_officer' ) ;
#22 = DIRECTION ( 'NONE',  ( 4.596983092540343816E-18, 1.000000000000000000, -0.000000000000000000 ) ) ;
#23 = DATE_AND_TIME ( #70, #284 ) ;
#24 = CIRCLE ( 'NONE', #279, 10.27108703503069442 ) ;
#25 = ORIENTED_EDGE ( 'NONE', *, *, #226, .T. ) ;
#26 = FACE_OUTER_BOUND ( 'NONE', #350, .T. ) ;
#27 = EDGE_LOOP ( 'NONE', ( #341, #262, #44 ) ) ;
#28 = DIRECTION ( 'NONE',  ( 4.596983092540343816E-18, 1.000000000000000000, -0.000000000000000000 ) ) ;
#29 = EDGE_CURVE ( 'NONE', #152, #173, #46, .T. ) ;
#30 = APPROVAL_PERSON_ORGANIZATION ( #205, #33, #43 ) ;
#31 = AXIS2_PLACEMENT_3D ( 'NONE', #330, #248, #76 ) ;
#32 = DIRECTION ( 'NONE',  ( -1.000000000000000000, 0.000000000000000000, 0.000000000000000000 ) ) ;
#33 = APPROVAL ( #177, 'UNSPECIFIED' ) ;
#34 = ORIENTED_EDGE ( 'NONE', *, *, #309, .T. ) ;
#35 = DIRECTION ( 'NONE',  ( -1.000000000000000000, 0.000000000000000000, 0.000000000000000000 ) ) ;
#36 = ORIENTED_EDGE ( 'NONE', *, *, #77, .F. ) ;
#37 = DIRECTION ( 'NONE',  ( 4.596983092540343816E-18, 1.000000000000000000, -0.000000000000000000 ) ) ;
#38 = AXIS2_PLACEMENT_3D ( 'NONE', #90, #15, #66 ) ;
#39 = EDGE_LOOP ( 'NONE', ( #192, #348, #176, #59 ) ) ;
#40 = CIRCLE ( 'NONE', #242, 8.650000000000000355 ) ;
#41 = CC_DESIGN_PERSON_AND_ORGANIZATION_ASSIGNMENT ( #19, #326, ( #132 ) ) ;
#42 = EDGE_LOOP ( 'NONE', ( #147, #179, #36 ) ) ;
#43 = APPROVAL_ROLE ( '' ) ;
#44 = ORIENTED_EDGE ( 'NONE', *, *, #77, .T. ) ;
#45 =( LENGTH_UNIT ( ) NAMED_UNIT ( * ) SI_UNIT ( .MILLI., .METRE. ) );
#46 = CIRCLE ( 'NONE', #166, 10.64999999999999858 ) ;
#47 = SECURITY_CLASSIFICATION_LEVEL ( 'unclassified' ) ;
#48 = CARTESIAN_POINT ( 'NONE',  ( 9.236488298952508525E-16, 0.000000000000000000, 0.000000000000000000 ) ) ;
#49 = CIRCLE ( 'NONE', #280, 10.27108703503069442 ) ;
#50 = LINE ( 'NONE', #56, #255 ) ;
#51 = FACE_OUTER_BOUND ( 'NONE', #153, .T. ) ;
#52 = EDGE_CURVE ( 'NONE', #207, #253, #92, .T. ) ;
#53 = AXIS2_PLACEMENT_3D ( 'NONE', #73, #4, #35 ) ;
#54 = DIRECTION ( 'NONE',  ( -1.000000000000000000, 0.000000000000000000, 0.000000000000000000 ) ) ;
#55 = FACE_OUTER_BOUND ( 'NONE', #39, .T. ) ;
#56 = CARTESIAN_POINT ( 'NONE',  ( 10.65000000000001279, 2817.965330118411202, 1.304248841091931261E-15 ) ) ;
#57 = ORIENTED_EDGE ( 'NONE', *, *, #29, .T. ) ;
#58 = EDGE_CURVE ( 'NONE', #149, #346, #5, .T. ) ;
#59 = ORIENTED_EDGE ( 'NONE', *, *, #357, .F. ) ;
#60 = DIRECTION ( 'NONE',  ( -1.224646799147353207E-16, 5.629680630014033300E-34, 1.000000000000000000 ) ) ;
#61 = FACE_OUTER_BOUND ( 'NONE', #42, .T. ) ;
#62 = DIRECTION ( 'NONE',  ( 1.000000000000000000, 0.000000000000000000, 1.224646799147352714E-16 ) ) ;
#63 = DIRECTION ( 'NONE',  ( 4.596983092540343816E-18, 1.000000000000000000, -0.000000000000000000 ) ) ;
#64 = ORIENTED_EDGE ( 'NONE', *, *, #212, .F. ) ;
#65 = ADVANCED_FACE ( 'NONE', ( #51 ), #237, .T. ) ;
#66 = DIRECTION ( 'NONE',  ( -1.000000000000000000, 0.000000000000000000, 0.000000000000000000 ) ) ;
#67 = CARTESIAN_POINT ( 'NONE',  ( 10.27108703503069442, 7.946645125734619342, 1.281047113606676701E-15 ) ) ;
#68 = DIRECTION ( 'NONE',  ( -1.224646799147353207E-16, 5.629680630014033300E-34, 1.000000000000000000 ) ) ;
#69 = AXIS2_PLACEMENT_3D ( 'NONE', #140, #144, #2 ) ;
#70 = CALENDAR_DATE ( 2024, 18, 7 ) ;
#71 = CARTESIAN_POINT ( 'NONE',  ( 1.387778780781445676E-14, 2817.965330118411202, 0.000000000000000000 ) ) ;
#72 = PRODUCT_DEFINITION ( 'UNKNOWN', '', #132, #83 ) ;
#73 = CARTESIAN_POINT ( 'NONE',  ( 9.561665256304942672E-16, 7.073703574853151821, 0.000000000000000000 ) ) ;
#74 = CC_DESIGN_APPROVAL ( #335, ( #132 ) ) ;
#75 = COORDINATED_UNIVERSAL_TIME_OFFSET ( 1, 0, .AHEAD. ) ;
#76 = DIRECTION ( 'NONE',  ( 1.000000000000000000, 0.000000000000000000, 1.224646799147353207E-16 ) ) ;
#77 = EDGE_CURVE ( 'NONE', #210, #9, #139, .T. ) ;
#78 = CARTESIAN_POINT ( 'NONE',  ( 9.236488298952508525E-16, 0.000000000000000000, 0.000000000000000000 ) ) ;
#79 = EDGE_CURVE ( 'NONE', #253, #207, #98, .T. ) ;
#80 = AXIS2_PLACEMENT_3D ( 'NONE', #112, #111, #337 ) ;
#81 = DIRECTION ( 'NONE',  ( 1.000000000000000000, 0.000000000000000000, 0.000000000000000000 ) ) ;
#82 = CYLINDRICAL_SURFACE ( 'NONE', #38, 10.65000000000000036 ) ;
#83 = DESIGN_CONTEXT ( 'detailed design', #129, 'design' ) ;
#84 = CC_DESIGN_PERSON_AND_ORGANIZATION_ASSIGNMENT ( #244, #241, ( #132 ) ) ;
#85 = CARTESIAN_POINT ( 'NONE',  ( -10.27108703503069265, 7.946645125734619342, 0.000000000000000000 ) ) ;
#86 = DIRECTION ( 'NONE',  ( 1.000000000000000000, 0.000000000000000000, 0.000000000000000000 ) ) ;
#87 = ORIENTED_EDGE ( 'NONE', *, *, #226, .F. ) ;
#88 = CARTESIAN_POINT ( 'NONE',  ( -9.454999999999996518, 7.073703574853281495, 0.000000000000000000 ) ) ;
#89 = ORIENTED_EDGE ( 'NONE', *, *, #251, .F. ) ;
#90 = CARTESIAN_POINT ( 'NONE',  ( 1.387778780781445676E-14, 2817.965330118411202, 0.000000000000000000 ) ) ;
#91 = AXIS2_PLACEMENT_3D ( 'NONE', #307, #172, #114 ) ;
#92 = CIRCLE ( 'NONE', #329, 8.650000000000000355 ) ;
#93 = ORIENTED_EDGE ( 'NONE', *, *, #194, .F. ) ;
#94 = VERTEX_POINT ( 'NONE', #216 ) ;
#95 = FACE_OUTER_BOUND ( 'NONE', #115, .T. ) ;
#96 = ADVANCED_FACE ( 'NONE', ( #325 ), #276, .F. ) ;
#97 = APPROVAL_STATUS ( 'not_yet_approved' ) ;
#98 = CIRCLE ( 'NONE', #273, 8.650000000000000355 ) ;
#99 = PERSON_AND_ORGANIZATION ( #201, #184 ) ;
#100 = AXIS2_PLACEMENT_3D ( 'NONE', #200, #60, #12 ) ;
#101 = CC_DESIGN_PERSON_AND_ORGANIZATION_ASSIGNMENT ( #128, #133, ( #72 ) ) ;
#102 = ADVANCED_BREP_SHAPE_REPRESENTATION ( '3D_R175_DN21.3x2_17336155', ( #164, #291 ), #131 ) ;
#103 = COORDINATED_UNIVERSAL_TIME_OFFSET ( 1, 0, .AHEAD. ) ;
#104 = CARTESIAN_POINT ( 'NONE',  ( 9.561665256304942672E-16, 7.073703574853151821, 0.000000000000000000 ) ) ;
#105 = DATE_AND_TIME ( #181, #175 ) ;
#106 = DIRECTION ( 'NONE',  ( 4.596983092540343816E-18, 1.000000000000000000, -0.000000000000000000 ) ) ;
#107 = DIRECTION ( 'NONE',  ( 4.596983092540343816E-18, 1.000000000000000000, -0.000000000000000000 ) ) ;
#108 = DIRECTION ( 'NONE',  ( 0.000000000000000000, 0.000000000000000000, 1.000000000000000000 ) ) ;
#109 = PRODUCT_DEFINITION_SHAPE ( 'NONE', 'NONE',  #72 ) ;
#110 = APPROVAL_PERSON_ORGANIZATION ( #324, #335, #298 ) ;
#111 = DIRECTION ( 'NONE',  ( 0.000000000000000000, 0.000000000000000000, 1.000000000000000000 ) ) ;
#112 = CARTESIAN_POINT ( 'NONE',  ( 1.352010066258679286E-15, -3.040000000000002700, 0.000000000000000000 ) ) ;
#113 = UNCERTAINTY_MEASURE_WITH_UNIT (LENGTH_MEASURE( 1.000000000000000082E-05 ), #45, 'distance_accuracy_value', 'NONE');
#114 = DIRECTION ( 'NONE',  ( -1.000000000000000000, 4.596983092540343816E-18, 0.000000000000000000 ) ) ;
#115 = EDGE_LOOP ( 'NONE', ( #3, #64, #123 ) ) ;
#116 = FACE_OUTER_BOUND ( 'NONE', #308, .T. ) ;
#117 = VECTOR ( 'NONE', #37, 1000.000000000000000 ) ;
#118 = CIRCLE ( 'NONE', #165, 1.194999999999999840 ) ;
#119 = ORIENTED_EDGE ( 'NONE', *, *, #215, .F. ) ;
#120 = LINE ( 'NONE', #313, #320 ) ;
#121 = ORIENTED_EDGE ( 'NONE', *, *, #58, .T. ) ;
#122 = DIRECTION ( 'NONE',  ( 4.596983092540343816E-18, 1.000000000000000000, -0.000000000000000000 ) ) ;
#123 = ORIENTED_EDGE ( 'NONE', *, *, #251, .T. ) ;
#124 = CALENDAR_DATE ( 2024, 18, 7 ) ;
#125 = CC_DESIGN_APPROVAL ( #249, ( #223 ) ) ;
#126 = PRODUCT_RELATED_PRODUCT_CATEGORY ( 'detail', '', ( #240 ) ) ;
#127 = ORIENTED_EDGE ( 'NONE', *, *, #79, .F. ) ;
#128 = PERSON_AND_ORGANIZATION ( #201, #184 ) ;
#129 = APPLICATION_CONTEXT ( 'configuration controlled 3d designs of mechanical parts and assemblies' ) ;
#130 = CALENDAR_DATE ( 2024, 18, 7 ) ;
#131 =( GEOMETRIC_REPRESENTATION_CONTEXT ( 3 ) GLOBAL_UNCERTAINTY_ASSIGNED_CONTEXT ( ( #113 ) ) GLOBAL_UNIT_ASSIGNED_CONTEXT ( ( #45, #231, #156 ) ) REPRESENTATION_CONTEXT ( 'NONE', 'WORKASPACE' ) );
#132 = PRODUCT_DEFINITION_FORMATION_WITH_SPECIFIED_SOURCE ( 'ANY', '', #240, .NOT_KNOWN. ) ;
#133 = PERSON_AND_ORGANIZATION_ROLE ( 'creator' ) ;
#134 = DIRECTION ( 'NONE',  ( 4.596983092540343816E-18, 1.000000000000000000, -0.000000000000000000 ) ) ;
#135 = ADVANCED_FACE ( 'NONE', ( #178 ), #269, .T. ) ;
#136 = SHAPE_DEFINITION_REPRESENTATION ( #109, #102 ) ;
#137 = CARTESIAN_POINT ( 'NONE',  ( 1.352010066258679286E-15, -3.040000000000002700, 0.000000000000000000 ) ) ;
#138 = CC_DESIGN_PERSON_AND_ORGANIZATION_ASSIGNMENT ( #99, #21, ( #223 ) ) ;
#139 = CIRCLE ( 'NONE', #342, 15.04000000000000092 ) ;
#140 = CARTESIAN_POINT ( 'NONE',  ( -1.125292501702669742E-34, -2.447893496777732450E-17, 0.000000000000000000 ) ) ;
#141 = ADVANCED_FACE ( 'NONE', ( #296 ), #252, .T. ) ;
#142 = ORIENTED_EDGE ( 'NONE', *, *, #29, .F. ) ;
#143 = AXIS2_PLACEMENT_3D ( 'NONE', #333, #275, #190 ) ;
#144 = DIRECTION ( 'NONE',  ( -4.596983092540343816E-18, -1.000000000000000000, 0.000000000000000000 ) ) ;
#145 = DIRECTION ( 'NONE',  ( -1.000000000000000000, 0.000000000000000000, 0.000000000000000000 ) ) ;
#146 = EDGE_CURVE ( 'NONE', #149, #94, #40, .T. ) ;
#147 = ORIENTED_EDGE ( 'NONE', *, *, #283, .T. ) ;
#148 = PLANE ( 'NONE',  #69 ) ;
#149 = VERTEX_POINT ( 'NONE', #225 ) ;
#150 = AXIS2_PLACEMENT_3D ( 'NONE', #168, #227, #145 ) ;
#151 = AXIS2_PLACEMENT_3D ( 'NONE', #154, #343, #297 ) ;
#152 = VERTEX_POINT ( 'NONE', #183 ) ;
#153 = EDGE_LOOP ( 'NONE', ( #344, #57, #294, #285 ) ) ;
#154 = CARTESIAN_POINT ( 'NONE',  ( 1.352010066258679286E-15, -3.040000000000002700, 0.000000000000000000 ) ) ;
#155 = ORIENTED_EDGE ( 'NONE', *, *, #212, .T. ) ;
#156 =( NAMED_UNIT ( * ) SI_UNIT ( $, .STERADIAN. ) SOLID_ANGLE_UNIT ( ) );
#157 = APPLICATION_PROTOCOL_DEFINITION ( 'international standard', 'config_control_design', 1994, #270 ) ;
#158 = PERSON_AND_ORGANIZATION ( #201, #184 ) ;
#159 = DIRECTION ( 'NONE',  ( 1.000000000000000000, -4.596983092540343816E-18, 0.000000000000000000 ) ) ;
#160 = AXIS2_PLACEMENT_3D ( 'NONE', #301, #108, #32 ) ;
#161 = CARTESIAN_POINT ( 'NONE',  ( 1.734723475976807094E-15, 7.073703574853281495, 0.000000000000000000 ) ) ;
#162 = DIRECTION ( 'NONE',  ( -1.000000000000000000, 4.596983092540343816E-18, 0.000000000000000000 ) ) ;
#163 = CC_DESIGN_PERSON_AND_ORGANIZATION_ASSIGNMENT ( #261, #17, ( #240 ) ) ;
#164 = MANIFOLD_SOLID_BREP ( 'Wandung1', #198 ) ;
#165 = AXIS2_PLACEMENT_3D ( 'NONE', #319, #68, #62 ) ;
#166 = AXIS2_PLACEMENT_3D ( 'NONE', #104, #247, #278 ) ;
#167 = CC_DESIGN_DATE_AND_TIME_ASSIGNMENT ( #213, #188, ( #72 ) ) ;
#168 = CARTESIAN_POINT ( 'NONE',  ( 1.352010066258679286E-15, -3.040000000000002700, 0.000000000000000000 ) ) ;
#169 = DIRECTION ( 'NONE',  ( 4.596983092540348438E-18, 1.000000000000000000, -0.000000000000000000 ) ) ;
#170 = CARTESIAN_POINT ( 'NONE',  ( 9.545314885652656179E-16, 6.718027464605813570, 0.000000000000000000 ) ) ;
#171 = EDGE_CURVE ( 'NONE', #229, #152, #50, .T. ) ;
#172 = DIRECTION ( 'NONE',  ( 4.596983092540343816E-18, 1.000000000000000000, -0.000000000000000000 ) ) ;
#173 = VERTEX_POINT ( 'NONE', #224 ) ;
#174 = ORIENTED_EDGE ( 'NONE', *, *, #171, .F. ) ;
#175 = LOCAL_TIME ( 11, 59, 15.00000000000000000, #186 ) ;
#176 = ORIENTED_EDGE ( 'NONE', *, *, #283, .F. ) ;
#177 = APPROVAL_STATUS ( 'not_yet_approved' ) ;
#178 = FACE_OUTER_BOUND ( 'NONE', #260, .T. ) ;
#179 = ORIENTED_EDGE ( 'NONE', *, *, #340, .T. ) ;
#180 = EDGE_CURVE ( 'NONE', #6, #210, #49, .T. ) ;
#181 = CALENDAR_DATE ( 2024, 18, 7 ) ;
#182 = DIRECTION ( 'NONE',  ( -1.000000000000000000, 0.000000000000000000, 0.000000000000000000 ) ) ;
#183 = CARTESIAN_POINT ( 'NONE',  ( 10.65000000000000036, 7.073703574853151821, 1.304248841091931261E-15 ) ) ;
#184 = ORGANIZATION ( 'UNSPECIFIED', 'UNSPECIFIED', '' ) ;
#185 = DIRECTION ( 'NONE',  ( 4.596983092540343816E-18, 1.000000000000000000, -0.000000000000000000 ) ) ;
#186 = COORDINATED_UNIVERSAL_TIME_OFFSET ( 1, 0, .AHEAD. ) ;
#187 = EDGE_CURVE ( 'NONE', #229, #234, #243, .T. ) ;
#188 = DATE_TIME_ROLE ( 'creation_date' ) ;
#189 = LOCAL_TIME ( 11, 59, 15.00000000000000000, #277 ) ;
#190 = DIRECTION ( 'NONE',  ( -1.000000000000000000, 4.596983092540343816E-18, 0.000000000000000000 ) ) ;
#191 = CIRCLE ( 'NONE', #214, 1.194999999999999840 ) ;
#192 = ORIENTED_EDGE ( 'NONE', *, *, #194, .T. ) ;
#193 = CARTESIAN_POINT ( 'NONE',  ( -10.64999999999998614, 2817.965330118411202, 0.000000000000000000 ) ) ;
#194 = EDGE_CURVE ( 'NONE', #173, #152, #336, .T. ) ;
#195 = DIRECTION ( 'NONE',  ( -1.000000000000000000, 4.596983092540343816E-18, 0.000000000000000000 ) ) ;
#196 = DIRECTION ( 'NONE',  ( 4.596983092540343816E-18, 1.000000000000000000, -0.000000000000000000 ) ) ;
#197 = ADVANCED_FACE ( 'NONE', ( #55 ), #359, .T. ) ;
#198 = CLOSED_SHELL ( 'NONE', ( #295, #331, #16, #197, #135, #267, #299, #65, #141, #96, #327 ) ) ;
#199 = ORIENTED_EDGE ( 'NONE', *, *, #215, .T. ) ;
#200 = CARTESIAN_POINT ( 'NONE',  ( 1.352010066258679286E-15, -3.040000000000002700, 0.000000000000000000 ) ) ;
#201 = PERSON ( 'UNSPECIFIED', 'UNSPECIFIED', 'UNSPECIFIED', ('UNSPECIFIED'), ('UNSPECIFIED'), ('UNSPECIFIED') ) ;
#202 = ORIENTED_EDGE ( 'NONE', *, *, #146, .T. ) ;
#203 = DIRECTION ( 'NONE',  ( -1.000000000000000000, 0.000000000000000000, 0.000000000000000000 ) ) ;
#204 = ORIENTED_EDGE ( 'NONE', *, *, #187, .T. ) ;
#205 = PERSON_AND_ORGANIZATION ( #201, #184 ) ;
#206 = AXIS2_PLACEMENT_3D ( 'NONE', #161, #28, #195 ) ;
#207 = VERTEX_POINT ( 'NONE', #222 ) ;
#208 = CARTESIAN_POINT ( 'NONE',  ( 6.134850127413311347E-16, 9.999999999999998224, 0.000000000000000000 ) ) ;
#209 = DIRECTION ( 'NONE',  ( -1.000000000000000000, 0.000000000000000000, 0.000000000000000000 ) ) ;
#210 = VERTEX_POINT ( 'NONE', #85 ) ;
#211 = CYLINDRICAL_SURFACE ( 'NONE', #20, 8.650000000000000355 ) ;
#212 = EDGE_CURVE ( 'NONE', #94, #149, #272, .T. ) ;
#213 = DATE_AND_TIME ( #130, #334 ) ;
#214 = AXIS2_PLACEMENT_3D ( 'NONE', #88, #233, #239 ) ;
#215 = EDGE_CURVE ( 'NONE', #234, #229, #352, .T. ) ;
#216 = CARTESIAN_POINT ( 'NONE',  ( -8.649999999999998579, 6.718027464605813570, 0.000000000000000000 ) ) ;
#217 = APPROVAL_STATUS ( 'not_yet_approved' ) ;
#218 = DIRECTION ( 'NONE',  ( 0.000000000000000000, 0.000000000000000000, 1.000000000000000000 ) ) ;
#219 = APPROVAL_DATE_TIME ( #105, #335 ) ;
#220 = DATE_TIME_ROLE ( 'classification_date' ) ;
#221 = DIRECTION ( 'NONE',  ( 1.000000000000000000, -4.596983092540343816E-18, 0.000000000000000000 ) ) ;
#222 = CARTESIAN_POINT ( 'NONE',  ( -8.649999999999998579, 3.976390375047397370E-17, 0.000000000000000000 ) ) ;
#223 = SECURITY_CLASSIFICATION ( '', '', #47 ) ;
#224 = CARTESIAN_POINT ( 'NONE',  ( -10.64999999999999680, 7.073703574853151821, 0.000000000000000000 ) ) ;
#225 = CARTESIAN_POINT ( 'NONE',  ( 8.650000000000002132, 6.718027464605813570, 1.059319481262460570E-15 ) ) ;
#226 = EDGE_CURVE ( 'NONE', #234, #173, #306, .T. ) ;
#227 = DIRECTION ( 'NONE',  ( -0.000000000000000000, 0.000000000000000000, -1.000000000000000000 ) ) ;
#228 = CIRCLE ( 'NONE', #150, 13.04000000000000092 ) ;
#229 = VERTEX_POINT ( 'NONE', #254 ) ;
#230 = ORIENTED_EDGE ( 'NONE', *, *, #146, .F. ) ;
#231 =( NAMED_UNIT ( * ) PLANE_ANGLE_UNIT ( ) SI_UNIT ( $, .RADIAN. ) );
#232 = ORIENTED_EDGE ( 'NONE', *, *, #79, .T. ) ;
#233 = DIRECTION ( 'NONE',  ( -0.000000000000000000, 0.000000000000000000, -1.000000000000000000 ) ) ;
#234 = VERTEX_POINT ( 'NONE', #245 ) ;
#235 = DATE_AND_TIME ( #124, #323 ) ;
#236 = CC_DESIGN_APPROVAL ( #33, ( #72 ) ) ;
#237 = TOROIDAL_SURFACE ( 'NONE', #258, 9.454999999999998295, 1.194999999999999396 ) ;
#238 = ORIENTED_EDGE ( 'NONE', *, *, #303, .F. ) ;
#239 = DIRECTION ( 'NONE',  ( -1.000000000000000000, 0.000000000000000000, 0.000000000000000000 ) ) ;
#240 = PRODUCT ( '3D_R175_DN21.3x2_17336155', '3D_R175_DN21.3x2_17336155', '', ( #290 ) ) ;
#241 = PERSON_AND_ORGANIZATION_ROLE ( 'creator' ) ;
#242 = AXIS2_PLACEMENT_3D ( 'NONE', #18, #169, #86 ) ;
#243 = CIRCLE ( 'NONE', #91, 10.65000000000000036 ) ;
#244 = PERSON_AND_ORGANIZATION ( #201, #184 ) ;
#245 = CARTESIAN_POINT ( 'NONE',  ( -10.64999999999999858, 4.895786993555466133E-17, 0.000000000000000000 ) ) ;
#246 = APPROVAL_ROLE ( '' ) ;
#247 = DIRECTION ( 'NONE',  ( 4.596983092540343816E-18, 1.000000000000000000, -0.000000000000000000 ) ) ;
#248 = DIRECTION ( 'NONE',  ( -1.224646799147353207E-16, 5.629680630014033300E-34, 1.000000000000000000 ) ) ;
#249 = APPROVAL ( #97, 'UNSPECIFIED' ) ;
#250 = CARTESIAN_POINT ( 'NONE',  ( 9.601794231806716495E-16, 7.946645125734619342, 0.000000000000000000 ) ) ;
#251 = EDGE_CURVE ( 'NONE', #94, #346, #228, .T. ) ;
#252 = SPHERICAL_SURFACE ( 'NONE', #160, 15.04000000000000092 ) ;
#253 = VERTEX_POINT ( 'NONE', #281 ) ;
#254 = CARTESIAN_POINT ( 'NONE',  ( 10.65000000000000213, -4.895786993555466133E-17, 1.304248841091931261E-15 ) ) ;
#255 = VECTOR ( 'NONE', #22, 1000.000000000000000 ) ;
#256 = EDGE_LOOP ( 'NONE', ( #127, #318, #202, #310 ) ) ;
#257 = CARTESIAN_POINT ( 'NONE',  ( 0.000000000000000000, 0.000000000000000000, 0.000000000000000000 ) ) ;
#258 = AXIS2_PLACEMENT_3D ( 'NONE', #274, #106, #162 ) ;
#259 = APPROVAL_PERSON_ORGANIZATION ( #158, #249, #246 ) ;
#260 = EDGE_LOOP ( 'NONE', ( #199, #265, #93, #87 ) ) ;
#261 = PERSON_AND_ORGANIZATION ( #201, #184 ) ;
#262 = ORIENTED_EDGE ( 'NONE', *, *, #180, .T. ) ;
#263 = COORDINATED_UNIVERSAL_TIME_OFFSET ( 1, 0, .AHEAD. ) ;
#264 = CARTESIAN_POINT ( 'NONE',  ( 1.387778780781445676E-14, 2817.965330118411202, 0.000000000000000000 ) ) ;
#265 = ORIENTED_EDGE ( 'NONE', *, *, #171, .T. ) ;
#266 = APPROVAL_DATE_TIME ( #235, #33 ) ;
#267 = ADVANCED_FACE ( 'NONE', ( #282, #26 ), #148, .T. ) ;
#268 = LINE ( 'NONE', #8, #117 ) ;
#269 = CYLINDRICAL_SURFACE ( 'NONE', #353, 10.65000000000000036 ) ;
#270 = APPLICATION_CONTEXT ( 'configuration controlled 3d designs of mechanical parts and assemblies' ) ;
#271 = CC_DESIGN_DATE_AND_TIME_ASSIGNMENT ( #321, #220, ( #223 ) ) ;
#272 = CIRCLE ( 'NONE', #300, 8.650000000000000355 ) ;
#273 = AXIS2_PLACEMENT_3D ( 'NONE', #78, #107, #221 ) ;
#274 = CARTESIAN_POINT ( 'NONE',  ( 1.734723475976807094E-15, 7.073703574853281495, 0.000000000000000000 ) ) ;
#275 = DIRECTION ( 'NONE',  ( 4.596983092540343816E-18, 1.000000000000000000, -0.000000000000000000 ) ) ;
#276 = CYLINDRICAL_SURFACE ( 'NONE', #314, 8.650000000000000355 ) ;
#277 = COORDINATED_UNIVERSAL_TIME_OFFSET ( 1, 0, .AHEAD. ) ;
#278 = DIRECTION ( 'NONE',  ( -1.000000000000000000, 0.000000000000000000, 0.000000000000000000 ) ) ;
#279 = AXIS2_PLACEMENT_3D ( 'NONE', #250, #339, #286 ) ;
#280 = AXIS2_PLACEMENT_3D ( 'NONE', #356, #196, #54 ) ;
#281 = CARTESIAN_POINT ( 'NONE',  ( 8.650000000000002132, -3.976390375047397370E-17, 1.059319481262460570E-15 ) ) ;
#282 = FACE_BOUND ( 'NONE', #14, .T. ) ;
#283 = EDGE_CURVE ( 'NONE', #210, #6, #24, .T. ) ;
#284 = LOCAL_TIME ( 11, 59, 15.00000000000000000, #103 ) ;
#285 = ORIENTED_EDGE ( 'NONE', *, *, #180, .F. ) ;
#286 = DIRECTION ( 'NONE',  ( -1.000000000000000000, 0.000000000000000000, 0.000000000000000000 ) ) ;
#287 = ORIENTED_EDGE ( 'NONE', *, *, #52, .T. ) ;
#288 = VECTOR ( 'NONE', #134, 1000.000000000000000 ) ;
#289 = EDGE_LOOP ( 'NONE', ( #238, #315, #34, #155 ) ) ;
#290 = MECHANICAL_CONTEXT ( 'NONE', #270, 'mechanical' ) ;
#291 = AXIS2_PLACEMENT_3D ( 'NONE', #257, #293, #311 ) ;
#292 = ORIENTED_EDGE ( 'NONE', *, *, #187, .F. ) ;
#293 = DIRECTION ( 'NONE',  ( 0.000000000000000000, 0.000000000000000000, 1.000000000000000000 ) ) ;
#294 = ORIENTED_EDGE ( 'NONE', *, *, #357, .T. ) ;
#295 = ADVANCED_FACE ( 'NONE', ( #116 ), #338, .F. ) ;
#296 = FACE_OUTER_BOUND ( 'NONE', #27, .T. ) ;
#297 = DIRECTION ( 'NONE',  ( -1.000000000000000000, 0.000000000000000000, 0.000000000000000000 ) ) ;
#298 = APPROVAL_ROLE ( '' ) ;
#299 = ADVANCED_FACE ( 'NONE', ( #358 ), #82, .T. ) ;
#300 = AXIS2_PLACEMENT_3D ( 'NONE', #170, #1, #81 ) ;
#301 = CARTESIAN_POINT ( 'NONE',  ( 1.352010066258679286E-15, -3.040000000000002700, 0.000000000000000000 ) ) ;
#302 = DIRECTION ( 'NONE',  ( -1.000000000000000000, 0.000000000000000000, 0.000000000000000000 ) ) ;
#303 = EDGE_CURVE ( 'NONE', #253, #149, #268, .T. ) ;
#304 = CALENDAR_DATE ( 2024, 18, 7 ) ;
#305 = SPHERICAL_SURFACE ( 'NONE', #322, 15.04000000000000092 ) ;
#306 = LINE ( 'NONE', #193, #288 ) ;
#307 = CARTESIAN_POINT ( 'NONE',  ( 9.236488298952508525E-16, 0.000000000000000000, 0.000000000000000000 ) ) ;
#308 = EDGE_LOOP ( 'NONE', ( #230, #121, #89 ) ) ;
#309 = EDGE_CURVE ( 'NONE', #207, #94, #120, .T. ) ;
#310 = ORIENTED_EDGE ( 'NONE', *, *, #309, .F. ) ;
#311 = DIRECTION ( 'NONE',  ( 1.000000000000000000, 0.000000000000000000, 0.000000000000000000 ) ) ;
#312 = CARTESIAN_POINT ( 'NONE',  ( 5.002142990116765140E-16, 11.99999999999999822, 0.000000000000000000 ) ) ;
#313 = CARTESIAN_POINT ( 'NONE',  ( -8.649999999999986144, 2817.965330118411202, 0.000000000000000000 ) ) ;
#314 = AXIS2_PLACEMENT_3D ( 'NONE', #71, #63, #209 ) ;
#315 = ORIENTED_EDGE ( 'NONE', *, *, #52, .F. ) ;
#316 = FACE_OUTER_BOUND ( 'NONE', #256, .T. ) ;
#317 = DIRECTION ( 'NONE',  ( -1.000000000000000000, 0.000000000000000000, 0.000000000000000000 ) ) ;
#318 = ORIENTED_EDGE ( 'NONE', *, *, #303, .T. ) ;
#319 = CARTESIAN_POINT ( 'NONE',  ( 9.455000000000000071, 7.073703574853281495, 1.157903548593822198E-15 ) ) ;
#320 = VECTOR ( 'NONE', #345, 1000.000000000000000 ) ;
#321 = DATE_AND_TIME ( #304, #189 ) ;
#322 = AXIS2_PLACEMENT_3D ( 'NONE', #137, #218, #182 ) ;
#323 = LOCAL_TIME ( 11, 59, 15.00000000000000000, #263 ) ;
#324 = PERSON_AND_ORGANIZATION ( #201, #184 ) ;
#325 = FACE_OUTER_BOUND ( 'NONE', #289, .T. ) ;
#326 = PERSON_AND_ORGANIZATION_ROLE ( 'design_supplier' ) ;
#327 = ADVANCED_FACE ( 'NONE', ( #95 ), #347, .F. ) ;
#328 = APPROVAL_DATE_TIME ( #23, #249 ) ;
#329 = AXIS2_PLACEMENT_3D ( 'NONE', #48, #185, #159 ) ;
#330 = CARTESIAN_POINT ( 'NONE',  ( 1.352010066258679286E-15, -3.040000000000002700, 0.000000000000000000 ) ) ;
#331 = ADVANCED_FACE ( 'NONE', ( #316 ), #211, .F. ) ;
#332 = DIRECTION ( 'NONE',  ( -0.000000000000000000, 0.000000000000000000, -1.000000000000000000 ) ) ;
#333 = CARTESIAN_POINT ( 'NONE',  ( 9.236488298952508525E-16, 0.000000000000000000, 0.000000000000000000 ) ) ;
#334 = LOCAL_TIME ( 11, 59, 15.00000000000000000, #75 ) ;
#335 = APPROVAL ( #217, 'UNSPECIFIED' ) ;
#336 = CIRCLE ( 'NONE', #53, 10.64999999999999858 ) ;
#337 = DIRECTION ( 'NONE',  ( -1.000000000000000000, 0.000000000000000000, 0.000000000000000000 ) ) ;
#338 = SPHERICAL_SURFACE ( 'NONE', #80, 13.04000000000000092 ) ;
#339 = DIRECTION ( 'NONE',  ( 4.596983092540343816E-18, 1.000000000000000000, -0.000000000000000000 ) ) ;
#340 = EDGE_CURVE ( 'NONE', #6, #9, #354, .T. ) ;
#341 = ORIENTED_EDGE ( 'NONE', *, *, #340, .F. ) ;
#342 = AXIS2_PLACEMENT_3D ( 'NONE', #355, #332, #302 ) ;
#343 = DIRECTION ( 'NONE',  ( 0.000000000000000000, 0.000000000000000000, 1.000000000000000000 ) ) ;
#344 = ORIENTED_EDGE ( 'NONE', *, *, #351, .F. ) ;
#345 = DIRECTION ( 'NONE',  ( 4.596983092540343816E-18, 1.000000000000000000, -0.000000000000000000 ) ) ;
#346 = VERTEX_POINT ( 'NONE', #208 ) ;
#347 = SPHERICAL_SURFACE ( 'NONE', #151, 13.04000000000000092 ) ;
#348 = ORIENTED_EDGE ( 'NONE', *, *, #351, .T. ) ;
#349 = CARTESIAN_POINT ( 'NONE',  ( 1.387778780781445676E-14, 2817.965330118411202, 0.000000000000000000 ) ) ;
#350 = EDGE_LOOP ( 'NONE', ( #119, #292 ) ) ;
#351 = EDGE_CURVE ( 'NONE', #152, #6, #118, .T. ) ;
#352 = CIRCLE ( 'NONE', #143, 10.65000000000000036 ) ;
#353 = AXIS2_PLACEMENT_3D ( 'NONE', #264, #13, #317 ) ;
#354 = CIRCLE ( 'NONE', #100, 15.04000000000000092 ) ;
#355 = CARTESIAN_POINT ( 'NONE',  ( 1.352010066258679286E-15, -3.040000000000002700, 0.000000000000000000 ) ) ;
#356 = CARTESIAN_POINT ( 'NONE',  ( 9.601794231806716495E-16, 7.946645125734619342, 0.000000000000000000 ) ) ;
#357 = EDGE_CURVE ( 'NONE', #173, #210, #191, .T. ) ;
#358 = FACE_OUTER_BOUND ( 'NONE', #11, .T. ) ;
#359 = TOROIDAL_SURFACE ( 'NONE', #206, 9.454999999999998295, 1.194999999999999396 ) ;
ENDSEC;
END-ISO-10303-21;
