ISO-10303-21;
HEADER;
FILE_DESCRIPTION (( 'STEP AP203' ),
    '1' );
FILE_NAME ('11-0206-02_outokumpu.step',
    '2015-08-11T09:46:25',
    ( '' ),
    ( '' ),
    'SwSTEP 2.0',
    'SolidWorks 2008',
    '' );
FILE_SCHEMA (( 'CONFIG_CONTROL_DESIGN' ));
ENDSEC;

DATA;
#1 = EDGE_LOOP ( 'NONE', ( #2, #69, #72, #36 ) ) ;
#2 = ORIENTED_EDGE ( 'NONE', *, *, #3, .T. ) ;
#3 = EDGE_CURVE ( 'NONE', #4, #17, #123, .T. ) ;
#4 = VERTEX_POINT ( 'NONE', #190 ) ;
#5 = CLOSED_SHELL ( 'NONE', ( #13, #78, #47, #26, #7, #42, #63, #195, #84, #15 ) ) ;
#6 = EDGE_CURVE ( 'NONE', #71, #20, #198, .T. ) ;
#7 = ADVANCED_FACE ( 'NONE', ( #161 ), #160, .T. ) ;
#8 = EDGE_LOOP ( 'NONE', ( #9, #10, #39, #40 ) ) ;
#9 = ORIENTED_EDGE ( 'NONE', *, *, #30, .F. ) ;
#10 = ORIENTED_EDGE ( 'NONE', *, *, #19, .T. ) ;
#11 = VERTEX_POINT ( 'NONE', #132 ) ;
#12 = MANIFOLD_SOLID_BREP ( 'NONE', #5 ) ;
#13 = ADVANCED_FACE ( 'NONE', ( #134 ), #133, .T. ) ;
#14 = ORIENTED_EDGE ( 'NONE', *, *, #41, .T. ) ;
#15 = ADVANCED_FACE ( 'NONE', ( #129 ), #128, .T. ) ;
#16 = VERTEX_POINT ( 'NONE', #142 ) ;
#17 = VERTEX_POINT ( 'NONE', #137 ) ;
#18 = ORIENTED_EDGE ( 'NONE', *, *, #60, .F. ) ;
#19 = EDGE_CURVE ( 'NONE', #16, #71, #158, .T. ) ;
#20 = VERTEX_POINT ( 'NONE', #154 ) ;
#21 = ORIENTED_EDGE ( 'NONE', *, *, #22, .T. ) ;
#22 = EDGE_CURVE ( 'NONE', #20, #23, #153, .T. ) ;
#23 = VERTEX_POINT ( 'NONE', #148 ) ;
#24 = ORIENTED_EDGE ( 'NONE', *, *, #25, .F. ) ;
#25 = EDGE_CURVE ( 'NONE', #80, #23, #147, .T. ) ;
#26 = ADVANCED_FACE ( 'NONE', ( #143 ), #178, .T. ) ;
#27 = EDGE_LOOP ( 'NONE', ( #28, #29, #31, #32 ) ) ;
#28 = ORIENTED_EDGE ( 'NONE', *, *, #73, .T. ) ;
#29 = ORIENTED_EDGE ( 'NONE', *, *, #30, .T. ) ;
#30 = EDGE_CURVE ( 'NONE', #16, #23, #173, .T. ) ;
#31 = ORIENTED_EDGE ( 'NONE', *, *, #22, .F. ) ;
#32 = ORIENTED_EDGE ( 'NONE', *, *, #6, .F. ) ;
#33 = ORIENTED_EDGE ( 'NONE', *, *, #68, .T. ) ;
#34 = ORIENTED_EDGE ( 'NONE', *, *, #65, .T. ) ;
#35 = ORIENTED_EDGE ( 'NONE', *, *, #19, .F. ) ;
#36 = ORIENTED_EDGE ( 'NONE', *, *, #68, .F. ) ;
#37 = EDGE_LOOP ( 'NONE', ( #38, #76, #21, #24 ) ) ;
#38 = ORIENTED_EDGE ( 'NONE', *, *, #79, .F. ) ;
#39 = ORIENTED_EDGE ( 'NONE', *, *, #6, .T. ) ;
#40 = ORIENTED_EDGE ( 'NONE', *, *, #41, .F. ) ;
#41 = EDGE_CURVE ( 'NONE', #23, #20, #169, .T. ) ;
#42 = ADVANCED_FACE ( 'NONE', ( #164, #163 ), #210, .F. ) ;
#43 = EDGE_LOOP ( 'NONE', ( #44, #46 ) ) ;
#44 = ORIENTED_EDGE ( 'NONE', *, *, #45, .F. ) ;
#45 = EDGE_CURVE ( 'NONE', #92, #89, #208, .T. ) ;
#46 = ORIENTED_EDGE ( 'NONE', *, *, #91, .F. ) ;
#47 = ADVANCED_FACE ( 'NONE', ( #204 ), #122, .F. ) ;
#48 = EDGE_LOOP ( 'NONE', ( #81, #87, #90, #93 ) ) ;
#49 = VERTEX_POINT ( 'NONE', #121 ) ;
#50 = DATE_AND_TIME ( #235, #211 ) ;
#51 = DESIGN_CONTEXT ( 'detailed design', #53, 'design' ) ;
#52 = APPLICATION_PROTOCOL_DEFINITION ( 'international standard', 'config_control_design', 1994, #53 ) ;
#53 = APPLICATION_CONTEXT ( 'configuration controlled 3d designs of mechanical parts and assemblies' ) ;
#54 = ORIENTED_EDGE ( 'NONE', *, *, #45, .T. ) ;
#55 = ORIENTED_EDGE ( 'NONE', *, *, #66, .F. ) ;
#56 = ORIENTED_EDGE ( 'NONE', *, *, #79, .T. ) ;
#57 = EDGE_LOOP ( 'NONE', ( #98, #55, #199, #54 ) ) ;
#58 = EDGE_LOOP ( 'NONE', ( #61, #56 ) ) ;
#59 = ORIENTED_EDGE ( 'NONE', *, *, #82, .T. ) ;
#60 = EDGE_CURVE ( 'NONE', #80, #11, #116, .T. ) ;
#61 = ORIENTED_EDGE ( 'NONE', *, *, #60, .T. ) ;
#62 = EDGE_LOOP ( 'NONE', ( #64, #59 ) ) ;
#63 = ADVANCED_FACE ( 'NONE', ( #111, #110 ), #109, .F. ) ;
#64 = ORIENTED_EDGE ( 'NONE', *, *, #66, .T. ) ;
#65 = EDGE_CURVE ( 'NONE', #17, #4, #103, .T. ) ;
#66 = EDGE_CURVE ( 'NONE', #83, #49, #189, .T. ) ;
#67 = ORIENTED_EDGE ( 'NONE', *, *, #65, .F. ) ;
#68 = EDGE_CURVE ( 'NONE', #4, #71, #185, .T. ) ;
#69 = ORIENTED_EDGE ( 'NONE', *, *, #70, .T. ) ;
#70 = EDGE_CURVE ( 'NONE', #17, #16, #180, .T. ) ;
#71 = VERTEX_POINT ( 'NONE', #232 ) ;
#72 = ORIENTED_EDGE ( 'NONE', *, *, #73, .F. ) ;
#73 = EDGE_CURVE ( 'NONE', #71, #16, #221, .T. ) ;
#74 = EDGE_LOOP ( 'NONE', ( #75, #67 ) ) ;
#75 = ORIENTED_EDGE ( 'NONE', *, *, #3, .F. ) ;
#76 = ORIENTED_EDGE ( 'NONE', *, *, #77, .T. ) ;
#77 = EDGE_CURVE ( 'NONE', #11, #20, #231, .T. ) ;
#78 = ADVANCED_FACE ( 'NONE', ( #227 ), #226, .T. ) ;
#79 = EDGE_CURVE ( 'NONE', #11, #80, #224, .T. ) ;
#80 = VERTEX_POINT ( 'NONE', #236 ) ;
#81 = ORIENTED_EDGE ( 'NONE', *, *, #82, .F. ) ;
#82 = EDGE_CURVE ( 'NONE', #49, #83, #248, .T. ) ;
#83 = VERTEX_POINT ( 'NONE', #250 ) ;
#84 = ADVANCED_FACE ( 'NONE', ( #249 ), #343, .T. ) ;
#85 = EDGE_LOOP ( 'NONE', ( #95, #18, #97, #14 ) ) ;
#86 = ORIENTED_EDGE ( 'NONE', *, *, #70, .F. ) ;
#87 = ORIENTED_EDGE ( 'NONE', *, *, #88, .T. ) ;
#88 = EDGE_CURVE ( 'NONE', #49, #89, #331, .T. ) ;
#89 = VERTEX_POINT ( 'NONE', #330 ) ;
#90 = ORIENTED_EDGE ( 'NONE', *, *, #91, .T. ) ;
#91 = EDGE_CURVE ( 'NONE', #89, #92, #314, .T. ) ;
#92 = VERTEX_POINT ( 'NONE', #315 ) ;
#93 = ORIENTED_EDGE ( 'NONE', *, *, #94, .F. ) ;
#94 = EDGE_CURVE ( 'NONE', #83, #92, #335, .T. ) ;
#95 = ORIENTED_EDGE ( 'NONE', *, *, #77, .F. ) ;
#96 = EDGE_LOOP ( 'NONE', ( #86, #34, #33, #35 ) ) ;
#97 = ORIENTED_EDGE ( 'NONE', *, *, #25, .T. ) ;
#98 = ORIENTED_EDGE ( 'NONE', *, *, #88, .F. ) ;
#99 = CARTESIAN_POINT ( 'NONE',  ( 0.0000000000000000000, -3.469446951953615000E-015, 0.0000000000000000000 ) ) ;
#100 = DIRECTION ( 'NONE',  ( 1.000000000000000000, 0.0000000000000000000, 0.0000000000000000000 ) ) ;
#101 = DIRECTION ( 'NONE',  ( -0.0000000000000000000, -0.0000000000000000000, 1.000000000000000000 ) ) ;
#102 = AXIS2_PLACEMENT_3D ( 'NONE', #107, #101, #100 ) ;
#103 = CIRCLE ( 'NONE', #102, 5.522665896583467000 ) ;
#104 = DIRECTION ( 'NONE',  ( -1.000000000000000000, 0.0000000000000000000, -0.0000000000000000000 ) ) ;
#105 = DIRECTION ( 'NONE',  ( 0.0000000000000000000, 0.0000000000000000000, -1.000000000000000000 ) ) ;
#106 = AXIS2_PLACEMENT_3D ( 'NONE', #108, #105, #104 ) ;
#107 = CARTESIAN_POINT ( 'NONE',  ( 0.0000000000000000000, 0.0000000000000000000, -17.99999999999999600 ) ) ;
#108 = CARTESIAN_POINT ( 'NONE',  ( 0.0000000000000000000, 5.722500000000000100, -2.168404344971008900E-016 ) ) ;
#109 = PLANE ( 'NONE',  #106 ) ;
#110 = FACE_OUTER_BOUND ( 'NONE', #58, .T. ) ;
#111 = FACE_BOUND ( 'NONE', #62, .T. ) ;
#112 = DIRECTION ( 'NONE',  ( 1.000000000000000000, 0.0000000000000000000, 0.0000000000000000000 ) ) ;
#113 = DIRECTION ( 'NONE',  ( -0.0000000000000000000, -0.0000000000000000000, 1.000000000000000000 ) ) ;
#114 = CARTESIAN_POINT ( 'NONE',  ( 0.0000000000000000000, 0.0000000000000000000, 1.311974505527457200E-018 ) ) ;
#115 = AXIS2_PLACEMENT_3D ( 'NONE', #114, #113, #112 ) ;
#116 = CIRCLE ( 'NONE', #115, 5.522665896583511400 ) ;
#117 = DIRECTION ( 'NONE',  ( 0.0000000000000000000, 1.000000000000000000, 0.0000000000000000000 ) ) ;
#118 = DIRECTION ( 'NONE',  ( -0.0000000000000000000, 2.063542395435045500E-016, -1.000000000000000000 ) ) ;
#119 = CARTESIAN_POINT ( 'NONE',  ( 0.0000000000000000000, 2.449293598294701000E-016, -18.00000000000001400 ) ) ;
#120 = AXIS2_PLACEMENT_3D ( 'NONE', #119, #118, #117 ) ;
#121 = CARTESIAN_POINT ( 'NONE',  ( 5.449498274509583300E-016, -4.450000000000005500, -9.182763659685956300E-016 ) ) ;
#122 = CYLINDRICAL_SURFACE ( 'NONE', #120, 4.450000000000001100 ) ;
#123 = CIRCLE ( 'NONE', #194, 5.522665896583467000 ) ;
#124 = DIRECTION ( 'NONE',  ( 1.000000000000000000, 0.0000000000000000000, 0.0000000000000000000 ) ) ;
#125 = DIRECTION ( 'NONE',  ( -0.0000000000000000000, -0.0000000000000000000, 1.000000000000000000 ) ) ;
#126 = CARTESIAN_POINT ( 'NONE',  ( 0.0000000000000000000, 0.0000000000000000000, -17.80016589658346900 ) ) ;
#127 = AXIS2_PLACEMENT_3D ( 'NONE', #126, #125, #124 ) ;
#128 = CONICAL_SURFACE ( 'NONE', #141, 5.722500000000000100, 0.7853981633974613800 ) ;
#129 = FACE_OUTER_BOUND ( 'NONE', #96, .T. ) ;
#130 = DIRECTION ( 'NONE',  ( -0.0000000000000000000, -0.0000000000000000000, 1.000000000000000000 ) ) ;
#131 = AXIS2_PLACEMENT_3D ( 'NONE', #159, #130, #135 ) ;
#132 = CARTESIAN_POINT ( 'NONE',  ( 5.522665896583511400, 6.885450803371439800E-016, 1.311974505527457200E-018 ) ) ;
#133 = CONICAL_SURFACE ( 'NONE', #127, 5.722500000000000100, 0.7853981633974613800 ) ;
#134 = FACE_OUTER_BOUND ( 'NONE', #1, .T. ) ;
#135 = DIRECTION ( 'NONE',  ( 1.000000000000000000, 0.0000000000000000000, 0.0000000000000000000 ) ) ;
#136 = CARTESIAN_POINT ( 'NONE',  ( 0.0000000000000000000, 0.0000000000000000000, -17.80016589658346900 ) ) ;
#137 = CARTESIAN_POINT ( 'NONE',  ( -5.522665896583467000, 6.885450803371412200E-016, -17.99999999999999600 ) ) ;
#138 = DIRECTION ( 'NONE',  ( 1.000000000000000000, 0.0000000000000000000, 0.0000000000000000000 ) ) ;
#139 = DIRECTION ( 'NONE',  ( -0.0000000000000000000, -0.0000000000000000000, 1.000000000000000000 ) ) ;
#140 = CARTESIAN_POINT ( 'NONE',  ( 0.0000000000000000000, 0.0000000000000000000, -17.80016589658346900 ) ) ;
#141 = AXIS2_PLACEMENT_3D ( 'NONE', #140, #139, #138 ) ;
#142 = CARTESIAN_POINT ( 'NONE',  ( -5.722500000000000100, 7.007809859748554100E-016, -17.80016589658346900 ) ) ;
#143 = FACE_OUTER_BOUND ( 'NONE', #27, .T. ) ;
#144 = DIRECTION ( 'NONE',  ( -0.7071067811865531200, 0.0000000000000000000, -0.7071067811865420200 ) ) ;
#145 = VECTOR ( 'NONE', #144, 999.9999999999998900 ) ;
#146 = CARTESIAN_POINT ( 'NONE',  ( -5.522665896583511400, 0.0000000000000000000, 1.311974505527457200E-018 ) ) ;
#147 = LINE ( 'NONE', #146, #145 ) ;
#148 = CARTESIAN_POINT ( 'NONE',  ( -5.722500000000000100, 7.007809859748554100E-016, -0.1998341034164852500 ) ) ;
#149 = DIRECTION ( 'NONE',  ( 1.000000000000000000, 0.0000000000000000000, 0.0000000000000000000 ) ) ;
#150 = DIRECTION ( 'NONE',  ( -0.0000000000000000000, -0.0000000000000000000, 1.000000000000000000 ) ) ;
#151 = CARTESIAN_POINT ( 'NONE',  ( 0.0000000000000000000, 0.0000000000000000000, -0.1998341034164852500 ) ) ;
#152 = AXIS2_PLACEMENT_3D ( 'NONE', #151, #150, #149 ) ;
#153 = CIRCLE ( 'NONE', #152, 5.722500000000000100 ) ;
#154 = CARTESIAN_POINT ( 'NONE',  ( 5.722500000000000100, 0.0000000000000000000, -0.1998341034164852500 ) ) ;
#155 = DIRECTION ( 'NONE',  ( 1.000000000000000000, 0.0000000000000000000, 0.0000000000000000000 ) ) ;
#156 = DIRECTION ( 'NONE',  ( -0.0000000000000000000, -0.0000000000000000000, 1.000000000000000000 ) ) ;
#157 = AXIS2_PLACEMENT_3D ( 'NONE', #136, #156, #155 ) ;
#158 = CIRCLE ( 'NONE', #157, 5.722500000000000100 ) ;
#159 = CARTESIAN_POINT ( 'NONE',  ( 0.0000000000000000000, 0.0000000000000000000, -4.336808689942017700E-016 ) ) ;
#160 = CYLINDRICAL_SURFACE ( 'NONE', #131, 5.722500000000000100 ) ;
#161 = FACE_OUTER_BOUND ( 'NONE', #8, .T. ) ;
#162 = VECTOR ( 'NONE', #196, 1000.000000000000000 ) ;
#163 = FACE_OUTER_BOUND ( 'NONE', #74, .T. ) ;
#164 = FACE_BOUND ( 'NONE', #43, .T. ) ;
#165 = DIRECTION ( 'NONE',  ( 1.000000000000000000, 0.0000000000000000000, 0.0000000000000000000 ) ) ;
#166 = DIRECTION ( 'NONE',  ( -0.0000000000000000000, -0.0000000000000000000, 1.000000000000000000 ) ) ;
#167 = CARTESIAN_POINT ( 'NONE',  ( 0.0000000000000000000, 0.0000000000000000000, -0.1998341034164852500 ) ) ;
#168 = AXIS2_PLACEMENT_3D ( 'NONE', #167, #166, #165 ) ;
#169 = CIRCLE ( 'NONE', #168, 5.722500000000000100 ) ;
#170 = DIRECTION ( 'NONE',  ( -0.0000000000000000000, -0.0000000000000000000, 1.000000000000000000 ) ) ;
#171 = VECTOR ( 'NONE', #170, 1000.000000000000000 ) ;
#172 = CARTESIAN_POINT ( 'NONE',  ( -5.722500000000000100, 7.007809859748554100E-016, -4.336808689942017700E-016 ) ) ;
#173 = LINE ( 'NONE', #172, #171 ) ;
#174 = DIRECTION ( 'NONE',  ( 1.000000000000000000, 0.0000000000000000000, 0.0000000000000000000 ) ) ;
#175 = DIRECTION ( 'NONE',  ( -0.0000000000000000000, -0.0000000000000000000, 1.000000000000000000 ) ) ;
#176 = CARTESIAN_POINT ( 'NONE',  ( 0.0000000000000000000, 0.0000000000000000000, -4.336808689942017700E-016 ) ) ;
#177 = AXIS2_PLACEMENT_3D ( 'NONE', #176, #175, #174 ) ;
#178 = CYLINDRICAL_SURFACE ( 'NONE', #177, 5.722500000000000100 ) ;
#179 = CARTESIAN_POINT ( 'NONE',  ( -5.722500000000000100, 7.007809859748554100E-016, -17.80016589658346900 ) ) ;
#180 = LINE ( 'NONE', #179, #234 ) ;
#181 = PRODUCT_DEFINITION ( 'UNKNOWN', '', #285, #51 ) ;
#182 = DIRECTION ( 'NONE',  ( 0.7071067811865567900, 0.0000000000000000000, 0.7071067811865383600 ) ) ;
#183 = VECTOR ( 'NONE', #182, 999.9999999999998900 ) ;
#184 = CARTESIAN_POINT ( 'NONE',  ( 5.722500000000000100, 0.0000000000000000000, -17.80016589658346900 ) ) ;
#185 = LINE ( 'NONE', #184, #183 ) ;
#186 = DIRECTION ( 'NONE',  ( 0.0000000000000000000, 1.000000000000000000, 2.063542395435045500E-016 ) ) ;
#187 = DIRECTION ( 'NONE',  ( -0.0000000000000000000, 2.063542395435045500E-016, -1.000000000000000000 ) ) ;
#188 = AXIS2_PLACEMENT_3D ( 'NONE', #99, #187, #186 ) ;
#189 = CIRCLE ( 'NONE', #188, 4.450000000000002000 ) ;
#190 = CARTESIAN_POINT ( 'NONE',  ( 5.522665896583467000, 0.0000000000000000000, -17.99999999999999600 ) ) ;
#191 = DIRECTION ( 'NONE',  ( 1.000000000000000000, 0.0000000000000000000, 0.0000000000000000000 ) ) ;
#192 = DIRECTION ( 'NONE',  ( -0.0000000000000000000, -0.0000000000000000000, 1.000000000000000000 ) ) ;
#193 = CARTESIAN_POINT ( 'NONE',  ( 0.0000000000000000000, 0.0000000000000000000, -17.99999999999999600 ) ) ;
#194 = AXIS2_PLACEMENT_3D ( 'NONE', #193, #192, #191 ) ;
#195 = ADVANCED_FACE ( 'NONE', ( #321 ), #320, .F. ) ;
#196 = DIRECTION ( 'NONE',  ( -0.0000000000000000000, -0.0000000000000000000, 1.000000000000000000 ) ) ;
#197 = CARTESIAN_POINT ( 'NONE',  ( 5.722500000000000100, 0.0000000000000000000, -4.336808689942017700E-016 ) ) ;
#198 = LINE ( 'NONE', #197, #162 ) ;
#199 = ORIENTED_EDGE ( 'NONE', *, *, #94, .T. ) ;
#200 = DIRECTION ( 'NONE',  ( 0.0000000000000000000, 1.000000000000000000, 0.0000000000000000000 ) ) ;
#201 = DIRECTION ( 'NONE',  ( -0.0000000000000000000, 2.063542395435045500E-016, -1.000000000000000000 ) ) ;
#202 = CARTESIAN_POINT ( 'NONE',  ( 0.0000000000000000000, 2.449293598294667500E-016, -18.00000000000000000 ) ) ;
#203 = AXIS2_PLACEMENT_3D ( 'NONE', #202, #201, #200 ) ;
#204 = FACE_OUTER_BOUND ( 'NONE', #48, .T. ) ;
#205 = DIRECTION ( 'NONE',  ( 1.000000000000000000, 0.0000000000000000000, 0.0000000000000000000 ) ) ;
#206 = DIRECTION ( 'NONE',  ( 0.0000000000000000000, -0.0000000000000000000, 1.000000000000000000 ) ) ;
#207 = AXIS2_PLACEMENT_3D ( 'NONE', #209, #206, #205 ) ;
#208 = CIRCLE ( 'NONE', #203, 4.450000000000001100 ) ;
#209 = CARTESIAN_POINT ( 'NONE',  ( 0.0000000000000000000, 5.722500000000001000, -17.99999999999999600 ) ) ;
#210 = PLANE ( 'NONE',  #207 ) ;
#211 = LOCAL_TIME ( 11, 46, 25.00000000000000000, #212 ) ;
#212 = COORDINATED_UNIVERSAL_TIME_OFFSET ( 1, 0, .AHEAD. ) ;
#213 = APPROVAL_PERSON_ORGANIZATION ( #217, #215, #214 ) ;
#214 = APPROVAL_ROLE ( '' ) ;
#215 = APPROVAL ( #216, 'UNSPECIFIED' ) ;
#216 = APPROVAL_STATUS ( 'not_yet_approved' ) ;
#217 = PERSON_AND_ORGANIZATION ( #309, #310 ) ;
#218 = AXIS2_PLACEMENT_3D ( 'NONE', #228, #230, #229 ) ;
#219 = CARTESIAN_POINT ( 'NONE',  ( 0.0000000000000000000, 0.0000000000000000000, 1.311974505527457200E-018 ) ) ;
#220 = AXIS2_PLACEMENT_3D ( 'NONE', #219, #222, #225 ) ;
#221 = CIRCLE ( 'NONE', #218, 5.722500000000000100 ) ;
#222 = DIRECTION ( 'NONE',  ( 0.0000000000000000000, 0.0000000000000000000, -1.000000000000000000 ) ) ;
#223 = AXIS2_PLACEMENT_3D ( 'NONE', #239, #238, #237 ) ;
#224 = CIRCLE ( 'NONE', #223, 5.522665896583511400 ) ;
#225 = DIRECTION ( 'NONE',  ( -1.000000000000000000, 0.0000000000000000000, 0.0000000000000000000 ) ) ;
#226 = CONICAL_SURFACE ( 'NONE', #220, 5.522665896583511400, 0.7853981633974560500 ) ;
#227 = FACE_OUTER_BOUND ( 'NONE', #37, .T. ) ;
#228 = CARTESIAN_POINT ( 'NONE',  ( 0.0000000000000000000, 0.0000000000000000000, -17.80016589658346900 ) ) ;
#229 = DIRECTION ( 'NONE',  ( 1.000000000000000000, 0.0000000000000000000, 0.0000000000000000000 ) ) ;
#230 = DIRECTION ( 'NONE',  ( -0.0000000000000000000, -0.0000000000000000000, 1.000000000000000000 ) ) ;
#231 = LINE ( 'NONE', #242, #241 ) ;
#232 = CARTESIAN_POINT ( 'NONE',  ( 5.722500000000000100, 0.0000000000000000000, -17.80016589658346900 ) ) ;
#233 = DIRECTION ( 'NONE',  ( -0.7071067811865567900, 8.659274570719468800E-017, 0.7071067811865383600 ) ) ;
#234 = VECTOR ( 'NONE', #233, 999.9999999999998900 ) ;
#235 = CALENDAR_DATE ( 2015, 11, 8 ) ;
#236 = CARTESIAN_POINT ( 'NONE',  ( -5.522665896583511400, 0.0000000000000000000, 1.311974505527457200E-018 ) ) ;
#237 = DIRECTION ( 'NONE',  ( 1.000000000000000000, 0.0000000000000000000, 0.0000000000000000000 ) ) ;
#238 = DIRECTION ( 'NONE',  ( -0.0000000000000000000, -0.0000000000000000000, 1.000000000000000000 ) ) ;
#239 = CARTESIAN_POINT ( 'NONE',  ( 0.0000000000000000000, 0.0000000000000000000, 1.311974505527457200E-018 ) ) ;
#240 = DIRECTION ( 'NONE',  ( 0.7071067811865531200, 8.659274570719423200E-017, -0.7071067811865420200 ) ) ;
#241 = VECTOR ( 'NONE', #240, 999.9999999999998900 ) ;
#242 = CARTESIAN_POINT ( 'NONE',  ( 5.522665896583511400, 6.763091746994324500E-016, 1.311974505527457200E-018 ) ) ;
#243 = APPROVAL_DATE_TIME ( #50, #215 ) ;
#244 = DIRECTION ( 'NONE',  ( 0.0000000000000000000, 1.000000000000000000, 2.063542395435045500E-016 ) ) ;
#245 = DIRECTION ( 'NONE',  ( -0.0000000000000000000, 2.063542395435045500E-016, -1.000000000000000000 ) ) ;
#246 = CARTESIAN_POINT ( 'NONE',  ( 0.0000000000000000000, -3.469446951953615000E-015, 0.0000000000000000000 ) ) ;
#247 = AXIS2_PLACEMENT_3D ( 'NONE', #246, #245, #244 ) ;
#248 = CIRCLE ( 'NONE', #247, 4.450000000000002000 ) ;
#249 = FACE_OUTER_BOUND ( 'NONE', #85, .T. ) ;
#250 = CARTESIAN_POINT ( 'NONE',  ( 0.0000000000000000000, 4.449999999999998400, 9.182763659685956300E-016 ) ) ;
#251 = CC_DESIGN_APPROVAL ( #215, ( #181 ) ) ;
#252 = APPROVAL_PERSON_ORGANIZATION ( #256, #254, #253 ) ;
#253 = APPROVAL_ROLE ( '' ) ;
#254 = APPROVAL ( #255, 'UNSPECIFIED' ) ;
#255 = APPROVAL_STATUS ( 'not_yet_approved' ) ;
#256 = PERSON_AND_ORGANIZATION ( #309, #310 ) ;
#257 = CC_DESIGN_DATE_AND_TIME_ASSIGNMENT ( #259, #258, ( #266 ) ) ;
#258 = DATE_TIME_ROLE ( 'classification_date' ) ;
#259 = DATE_AND_TIME ( #260, #261 ) ;
#260 = CALENDAR_DATE ( 2015, 11, 8 ) ;
#261 = LOCAL_TIME ( 11, 46, 25.00000000000000000, #262 ) ;
#262 = COORDINATED_UNIVERSAL_TIME_OFFSET ( 1, 0, .AHEAD. ) ;
#263 = CC_DESIGN_PERSON_AND_ORGANIZATION_ASSIGNMENT ( #265, #264, ( #266 ) ) ;
#264 = PERSON_AND_ORGANIZATION_ROLE ( 'classification_officer' ) ;
#265 = PERSON_AND_ORGANIZATION ( #309, #310 ) ;
#266 = SECURITY_CLASSIFICATION ( '', '', #267 ) ;
#267 = SECURITY_CLASSIFICATION_LEVEL ( 'unclassified' ) ;
#268 = CC_DESIGN_PERSON_AND_ORGANIZATION_ASSIGNMENT ( #270, #269, ( #285 ) ) ;
#269 = PERSON_AND_ORGANIZATION_ROLE ( 'design_supplier' ) ;
#270 = PERSON_AND_ORGANIZATION ( #309, #310 ) ;
#271 = CC_DESIGN_PERSON_AND_ORGANIZATION_ASSIGNMENT ( #273, #272, ( #285 ) ) ;
#272 = PERSON_AND_ORGANIZATION_ROLE ( 'creator' ) ;
#273 = PERSON_AND_ORGANIZATION ( #309, #310 ) ;
#274 = CC_DESIGN_APPROVAL ( #282, ( #285 ) ) ;
#275 = APPROVAL_DATE_TIME ( #276, #282 ) ;
#276 = DATE_AND_TIME ( #277, #278 ) ;
#277 = CALENDAR_DATE ( 2015, 11, 8 ) ;
#278 = LOCAL_TIME ( 11, 46, 25.00000000000000000, #279 ) ;
#279 = COORDINATED_UNIVERSAL_TIME_OFFSET ( 1, 0, .AHEAD. ) ;
#280 = APPROVAL_PERSON_ORGANIZATION ( #284, #282, #281 ) ;
#281 = APPROVAL_ROLE ( '' ) ;
#282 = APPROVAL ( #283, 'UNSPECIFIED' ) ;
#283 = APPROVAL_STATUS ( 'not_yet_approved' ) ;
#284 = PERSON_AND_ORGANIZATION ( #309, #310 ) ;
#285 = PRODUCT_DEFINITION_FORMATION_WITH_SPECIFIED_SOURCE ( 'ANY', '', #308, .NOT_KNOWN. ) ;
#286 = SHAPE_DEFINITION_REPRESENTATION ( #296, #317 ) ;
#287 = CC_DESIGN_DATE_AND_TIME_ASSIGNMENT ( #289, #288, ( #181 ) ) ;
#288 = DATE_TIME_ROLE ( 'creation_date' ) ;
#289 = DATE_AND_TIME ( #290, #291 ) ;
#290 = CALENDAR_DATE ( 2015, 11, 8 ) ;
#291 = LOCAL_TIME ( 11, 46, 25.00000000000000000, #292 ) ;
#292 = COORDINATED_UNIVERSAL_TIME_OFFSET ( 1, 0, .AHEAD. ) ;
#293 = CC_DESIGN_PERSON_AND_ORGANIZATION_ASSIGNMENT ( #295, #294, ( #181 ) ) ;
#294 = PERSON_AND_ORGANIZATION_ROLE ( 'creator' ) ;
#295 = PERSON_AND_ORGANIZATION ( #309, #310 ) ;
#296 = PRODUCT_DEFINITION_SHAPE ( 'NONE', 'NONE',  #181 ) ;
#297 = PRODUCT_RELATED_PRODUCT_CATEGORY ( 'detail', '', ( #308 ) ) ;
#298 = CC_DESIGN_SECURITY_CLASSIFICATION ( #266, ( #285 ) ) ;
#299 = CC_DESIGN_APPROVAL ( #254, ( #266 ) ) ;
#300 = APPROVAL_DATE_TIME ( #301, #254 ) ;
#301 = DATE_AND_TIME ( #302, #303 ) ;
#302 = CALENDAR_DATE ( 2015, 11, 8 ) ;
#303 = LOCAL_TIME ( 11, 46, 25.00000000000000000, #304 ) ;
#304 = COORDINATED_UNIVERSAL_TIME_OFFSET ( 1, 0, .AHEAD. ) ;
#305 = MECHANICAL_CONTEXT ( 'NONE', #307, 'mechanical' ) ;
#306 = APPLICATION_PROTOCOL_DEFINITION ( 'international standard', 'config_control_design', 1994, #307 ) ;
#307 = APPLICATION_CONTEXT ( 'configuration controlled 3d designs of mechanical parts and assemblies' ) ;
#308 = PRODUCT ( '11-0206-02_outokumpu', '11-0206-02_outokumpu', '', ( #305 ) ) ;
#309 = PERSON ( 'UNSPECIFIED', 'UNSPECIFIED', 'UNSPECIFIED', ('UNSPECIFIED'), ('UNSPECIFIED'), ('UNSPECIFIED') ) ;
#310 = ORGANIZATION ( 'UNSPECIFIED', 'UNSPECIFIED', '' ) ;
#311 = DIRECTION ( 'NONE',  ( -1.000000000000000000, 0.0000000000000000000, 0.0000000000000000000 ) ) ;
#312 = CARTESIAN_POINT ( 'NONE',  ( 0.0000000000000000000, 2.449293598294667500E-016, -18.00000000000000000 ) ) ;
#313 = AXIS2_PLACEMENT_3D ( 'NONE', #312, #319, #318 ) ;
#314 = CIRCLE ( 'NONE', #313, 4.450000000000001100 ) ;
#315 = CARTESIAN_POINT ( 'NONE',  ( 0.0000000000000000000, 4.450000000000001100, -18.00000000000000000 ) ) ;
#316 =( GEOMETRIC_REPRESENTATION_CONTEXT ( 3 ) GLOBAL_UNCERTAINTY_ASSIGNED_CONTEXT ( ( #326 ) ) GLOBAL_UNIT_ASSIGNED_CONTEXT ( ( #340, #341, #337 ) ) REPRESENTATION_CONTEXT ( 'NONE', 'WORKASPACE' ) );
#317 = ADVANCED_BREP_SHAPE_REPRESENTATION ( '11-0206-02_outokumpu', ( #12, #324 ), #316 ) ;
#318 = DIRECTION ( 'NONE',  ( 0.0000000000000000000, 1.000000000000000000, 0.0000000000000000000 ) ) ;
#319 = DIRECTION ( 'NONE',  ( -0.0000000000000000000, 2.063542395435045500E-016, -1.000000000000000000 ) ) ;
#320 = CYLINDRICAL_SURFACE ( 'NONE', #339, 4.450000000000001100 ) ;
#321 = FACE_OUTER_BOUND ( 'NONE', #57, .T. ) ;
#322 = DIRECTION ( 'NONE',  ( 0.0000000000000000000, 0.0000000000000000000, 1.000000000000000000 ) ) ;
#323 = CARTESIAN_POINT ( 'NONE',  ( 0.0000000000000000000, 0.0000000000000000000, 0.0000000000000000000 ) ) ;
#324 = AXIS2_PLACEMENT_3D ( 'NONE', #323, #322, #349 ) ;
#325 = PERSON_AND_ORGANIZATION ( #309, #310 ) ;
#326 = UNCERTAINTY_MEASURE_WITH_UNIT (LENGTH_MEASURE( 1.000000000000000100E-005 ), #340, 'distance_accuracy_value', 'NONE');
#327 = DIRECTION ( 'NONE',  ( 0.0000000000000000000, 1.000000000000000000, 0.0000000000000000000 ) ) ;
#328 = CARTESIAN_POINT ( 'NONE',  ( 0.0000000000000000000, 0.0000000000000000000, 1.311974505527457200E-018 ) ) ;
#329 = AXIS2_PLACEMENT_3D ( 'NONE', #328, #342, #311 ) ;
#330 = CARTESIAN_POINT ( 'NONE',  ( 5.449498274509579400E-016, -4.450000000000001100, -18.00000000000000000 ) ) ;
#331 = LINE ( 'NONE', #346, #345 ) ;
#332 = DIRECTION ( 'NONE',  ( -0.0000000000000000000, 2.063542395435045500E-016, -1.000000000000000000 ) ) ;
#333 = VECTOR ( 'NONE', #332, 1000.000000000000000 ) ;
#334 = CARTESIAN_POINT ( 'NONE',  ( 0.0000000000000000000, 4.450000000000001100, -18.00000000000001400 ) ) ;
#335 = LINE ( 'NONE', #334, #333 ) ;
#336 = CARTESIAN_POINT ( 'NONE',  ( 0.0000000000000000000, 2.449293598294701000E-016, -18.00000000000001400 ) ) ;
#337 =( NAMED_UNIT ( * ) SI_UNIT ( $, .STERADIAN. ) SOLID_ANGLE_UNIT ( ) );
#338 = DIRECTION ( 'NONE',  ( -0.0000000000000000000, 2.063542395435045500E-016, -1.000000000000000000 ) ) ;
#339 = AXIS2_PLACEMENT_3D ( 'NONE', #336, #338, #327 ) ;
#340 =( LENGTH_UNIT ( ) NAMED_UNIT ( * ) SI_UNIT ( .MILLI., .METRE. ) );
#341 =( NAMED_UNIT ( * ) PLANE_ANGLE_UNIT ( ) SI_UNIT ( $, .RADIAN. ) );
#342 = DIRECTION ( 'NONE',  ( 0.0000000000000000000, 0.0000000000000000000, -1.000000000000000000 ) ) ;
#343 = CONICAL_SURFACE ( 'NONE', #329, 5.522665896583511400, 0.7853981633974560500 ) ;
#344 = DIRECTION ( 'NONE',  ( -0.0000000000000000000, 2.063542395435045500E-016, -1.000000000000000000 ) ) ;
#345 = VECTOR ( 'NONE', #344, 1000.000000000000000 ) ;
#346 = CARTESIAN_POINT ( 'NONE',  ( 5.449498274509579400E-016, -4.450000000000001100, -18.00000000000001400 ) ) ;
#347 = CC_DESIGN_PERSON_AND_ORGANIZATION_ASSIGNMENT ( #325, #348, ( #308 ) ) ;
#348 = PERSON_AND_ORGANIZATION_ROLE ( 'design_owner' ) ;
#349 = DIRECTION ( 'NONE',  ( 1.000000000000000000, 0.0000000000000000000, 0.0000000000000000000 ) ) ;
ENDSEC;
END-ISO-10303-21;
