ISO-10303-21;
HEADER;
FILE_DESCRIPTION (( 'STEP AP203' ),
    '1' );
FILE_NAME ('3D_GT3512_14x30_188734020.STEP',
    '2024-10-21T10:42:35',
    ( '' ),
    ( '' ),
    'SwSTEP 2.0',
    'SolidWorks 2023',
    '' );
FILE_SCHEMA (( 'CONFIG_CONTROL_DESIGN' ));
ENDSEC;

DATA;
#1 = DIRECTION ( 'NONE',  ( 1.000000000000000000, 3.469446951953638249E-15, 0.000000000000000000 ) ) ;
#2 = CC_DESIGN_DATE_AND_TIME_ASSIGNMENT ( #155, #188, ( #172 ) ) ;
#3 = DIRECTION ( 'NONE',  ( 1.000000000000000000, 3.469446951953593678E-15, 0.000000000000000000 ) ) ;
#4 = PERSON_AND_ORGANIZATION_ROLE ( 'creator' ) ;
#5 = AXIS2_PLACEMENT_3D ( 'NONE', #88, #103, #107 ) ;
#6 = COORDINATED_UNIVERSAL_TIME_OFFSET ( 1, 0, .AHEAD. ) ;
#7 = APPLICATION_CONTEXT ( 'configuration controlled 3d designs of mechanical parts and assemblies' ) ;
#8 = ADVANCED_FACE ( 'NONE', ( #122 ), #165, .T. ) ;
#9 = DIRECTION ( 'NONE',  ( 3.430248998885766176E-15, -1.000000000000000000, -0.000000000000000000 ) ) ;
#10 = DIRECTION ( 'NONE',  ( 0.000000000000000000, 0.000000000000000000, 1.000000000000000000 ) ) ;
#11 = LINE ( 'NONE', #43, #186 ) ;
#12 = ORIENTED_EDGE ( 'NONE', *, *, #49, .T. ) ;
#13 = PRODUCT_DEFINITION_FORMATION_WITH_SPECIFIED_SOURCE ( 'ANY', '', #31, .NOT_KNOWN. ) ;
#14 = ADVANCED_FACE ( 'NONE', ( #162 ), #86, .F. ) ;
#15 = CARTESIAN_POINT ( 'NONE',  ( 0.000000000000000000, 0.000000000000000000, 0.000000000000000000 ) ) ;
#16 = PERSON_AND_ORGANIZATION ( #142, #182 ) ;
#17 = ADVANCED_FACE ( 'NONE', ( #131 ), #150, .F. ) ;
#18 = LINE ( 'NONE', #154, #125 ) ;
#19 = APPROVAL_ROLE ( '' ) ;
#20 = CALENDAR_DATE ( 2024, 21, 10 ) ;
#21 = COORDINATED_UNIVERSAL_TIME_OFFSET ( 1, 0, .AHEAD. ) ;
#22 = DATE_AND_TIME ( #20, #117 ) ;
#23 = CIRCLE ( 'NONE', #171, 7.000000000000041744 ) ;
#24 = DIRECTION ( 'NONE',  ( -0.000000000000000000, 0.000000000000000000, -1.000000000000000000 ) ) ;
#25 = CARTESIAN_POINT ( 'NONE',  ( 0.000000000000000000, 0.000000000000000000, 0.000000000000000000 ) ) ;
#26 = VERTEX_POINT ( 'NONE', #149 ) ;
#27 = CC_DESIGN_PERSON_AND_ORGANIZATION_ASSIGNMENT ( #111, #167, ( #31 ) ) ;
#28 = CC_DESIGN_APPROVAL ( #42, ( #67 ) ) ;
#29 = DIRECTION ( 'NONE',  ( 3.430248998885766176E-15, -1.000000000000000000, -0.000000000000000000 ) ) ;
#30 = CARTESIAN_POINT ( 'NONE',  ( 7.000000000000087930, -13.26649916142155128, -8.572527594031581658E-16 ) ) ;
#31 = PRODUCT ( '3D_GT3512_14x30_188734020', '3D_GT3512_14x30_188734020', '', ( #180 ) ) ;
#32 = CALENDAR_DATE ( 2024, 21, 10 ) ;
#33 = CIRCLE ( 'NONE', #176, 7.000000000000041744 ) ;
#34 = COORDINATED_UNIVERSAL_TIME_OFFSET ( 1, 0, .AHEAD. ) ;
#35 = PERSON_AND_ORGANIZATION ( #142, #182 ) ;
#36 = CARTESIAN_POINT ( 'NONE',  ( 6.999999999999907629, 13.26649916142164720, -8.572527594031471218E-16 ) ) ;
#37 = CIRCLE ( 'NONE', #59, 6.999999999999951150 ) ;
#38 = UNCERTAINTY_MEASURE_WITH_UNIT (LENGTH_MEASURE( 1.000000000000000082E-05 ), #168, 'distance_accuracy_value', 'NONE');
#39 = PERSON_AND_ORGANIZATION ( #142, #182 ) ;
#40 = LOCAL_TIME ( 12, 42, 35.00000000000000000, #34 ) ;
#41 = CARTESIAN_POINT ( 'NONE',  ( 0.000000000000000000, 0.000000000000000000, 0.000000000000000000 ) ) ;
#42 = APPROVAL ( #114, 'UNSPECIFIED' ) ;
#43 = CARTESIAN_POINT ( 'NONE',  ( 6.999999999999996447, 2.401174299220035100E-14, 0.000000000000000000 ) ) ;
#44 = AXIS2_PLACEMENT_3D ( 'NONE', #57, #160, #56 ) ;
#45 = ORIENTED_EDGE ( 'NONE', *, *, #151, .F. ) ;
#46 = EDGE_CURVE ( 'NONE', #177, #73, #11, .T. ) ;
#47 = CARTESIAN_POINT ( 'NONE',  ( 4.550739546718521521E-14, -13.26649916142157437, 0.000000000000000000 ) ) ;
#48 = DATE_AND_TIME ( #179, #63 ) ;
#49 = EDGE_CURVE ( 'NONE', #178, #177, #37, .T. ) ;
#50 = DESIGN_CONTEXT ( 'detailed design', #7, 'design' ) ;
#51 = DIRECTION ( 'NONE',  ( 1.000000000000000000, 0.000000000000000000, 0.000000000000000000 ) ) ;
#52 = CALENDAR_DATE ( 2024, 21, 10 ) ;
#53 = ADVANCED_FACE ( 'NONE', ( #58 ), #152, .T. ) ;
#54 = DATE_AND_TIME ( #52, #55 ) ;
#55 = LOCAL_TIME ( 12, 42, 35.00000000000000000, #21 ) ;
#56 = DIRECTION ( 'NONE',  ( 1.000000000000000000, 3.430248998885766176E-15, 0.000000000000000000 ) ) ;
#57 = CARTESIAN_POINT ( 'NONE',  ( 0.000000000000000000, 0.000000000000000000, 0.000000000000000000 ) ) ;
#58 = FACE_OUTER_BOUND ( 'NONE', #87, .T. ) ;
#59 = AXIS2_PLACEMENT_3D ( 'NONE', #164, #9, #185 ) ;
#60 = ORIENTED_EDGE ( 'NONE', *, *, #130, .F. ) ;
#61 = PERSON_AND_ORGANIZATION ( #142, #182 ) ;
#62 = COORDINATED_UNIVERSAL_TIME_OFFSET ( 1, 0, .AHEAD. ) ;
#63 = LOCAL_TIME ( 12, 42, 35.00000000000000000, #62 ) ;
#64 = DIRECTION ( 'NONE',  ( 3.430248998885766176E-15, -1.000000000000000000, -0.000000000000000000 ) ) ;
#65 =( NAMED_UNIT ( * ) PLANE_ANGLE_UNIT ( ) SI_UNIT ( $, .RADIAN. ) );
#66 = COORDINATED_UNIVERSAL_TIME_OFFSET ( 1, 0, .AHEAD. ) ;
#67 = SECURITY_CLASSIFICATION ( '', '', #158 ) ;
#68 = PERSON_AND_ORGANIZATION_ROLE ( 'classification_officer' ) ;
#69 = AXIS2_PLACEMENT_3D ( 'NONE', #25, #10, #72 ) ;
#70 = SHAPE_DEFINITION_REPRESENTATION ( #127, #95 ) ;
#71 = CARTESIAN_POINT ( 'NONE',  ( 0.000000000000000000, 0.000000000000000000, 0.000000000000000000 ) ) ;
#72 = DIRECTION ( 'NONE',  ( 1.000000000000000000, 0.000000000000000000, 0.000000000000000000 ) ) ;
#73 = VERTEX_POINT ( 'NONE', #30 ) ;
#74 = EDGE_CURVE ( 'NONE', #177, #73, #76, .T. ) ;
#75 = ORIENTED_EDGE ( 'NONE', *, *, #130, .T. ) ;
#76 = CIRCLE ( 'NONE', #79, 14.99999999999999822 ) ;
#77 = DIRECTION ( 'NONE',  ( 3.430248998885766176E-15, -1.000000000000000000, -0.000000000000000000 ) ) ;
#78 = PERSON_AND_ORGANIZATION_ROLE ( 'design_supplier' ) ;
#79 = AXIS2_PLACEMENT_3D ( 'NONE', #71, #128, #183 ) ;
#80 = CARTESIAN_POINT ( 'NONE',  ( -4.550739546718537929E-14, 13.26649916142162411, 0.000000000000000000 ) ) ;
#81 = CALENDAR_DATE ( 2024, 21, 10 ) ;
#82 = CC_DESIGN_APPROVAL ( #98, ( #172 ) ) ;
#83 = DIRECTION ( 'NONE',  ( -1.000000000000000000, -3.430248998885766176E-15, 0.000000000000000000 ) ) ;
#84 = DIRECTION ( 'NONE',  ( -0.000000000000000000, 0.000000000000000000, -1.000000000000000000 ) ) ;
#85 = AXIS2_PLACEMENT_3D ( 'NONE', #41, #84, #161 ) ;
#86 = CYLINDRICAL_SURFACE ( 'NONE', #5, 6.999999999999996447 ) ;
#87 = EDGE_LOOP ( 'NONE', ( #12, #146, #105, #129 ) ) ;
#88 = CARTESIAN_POINT ( 'NONE',  ( 0.000000000000000000, 0.000000000000000000, 0.000000000000000000 ) ) ;
#89 = CARTESIAN_POINT ( 'NONE',  ( -6.999999999999997335, 13.26649916142159924, 0.000000000000000000 ) ) ;
#90 = APPROVAL_PERSON_ORGANIZATION ( #99, #98, #19 ) ;
#91 = APPROVAL_DATE_TIME ( #141, #98 ) ;
#92 = APPLICATION_CONTEXT ( 'configuration controlled 3d designs of mechanical parts and assemblies' ) ;
#93 = PERSON_AND_ORGANIZATION_ROLE ( 'creator' ) ;
#94 = MANIFOLD_SOLID_BREP ( 'Rotation1', #97 ) ;
#95 = ADVANCED_BREP_SHAPE_REPRESENTATION ( '3D_GT3512_14x30_188734020', ( #94, #163 ), #148 ) ;
#96 = APPLICATION_PROTOCOL_DEFINITION ( 'international standard', 'config_control_design', 1994, #7 ) ;
#97 = CLOSED_SHELL ( 'NONE', ( #14, #53, #8, #17 ) ) ;
#98 = APPROVAL ( #135, 'UNSPECIFIED' ) ;
#99 = PERSON_AND_ORGANIZATION ( #142, #182 ) ;
#100 = DATE_TIME_ROLE ( 'classification_date' ) ;
#101 = CIRCLE ( 'NONE', #153, 6.999999999999951150 ) ;
#102 = ORIENTED_EDGE ( 'NONE', *, *, #151, .T. ) ;
#103 = DIRECTION ( 'NONE',  ( 3.430248998885766176E-15, -1.000000000000000000, -0.000000000000000000 ) ) ;
#104 = EDGE_LOOP ( 'NONE', ( #45, #132, #120, #75 ) ) ;
#105 = ORIENTED_EDGE ( 'NONE', *, *, #169, .F. ) ;
#106 = CC_DESIGN_DATE_AND_TIME_ASSIGNMENT ( #54, #100, ( #67 ) ) ;
#107 = DIRECTION ( 'NONE',  ( 1.000000000000000000, 3.430248998885766176E-15, 0.000000000000000000 ) ) ;
#108 = DIRECTION ( 'NONE',  ( 1.000000000000000000, 3.469446951953593678E-15, 0.000000000000000000 ) ) ;
#109 = APPROVAL ( #190, 'UNSPECIFIED' ) ;
#110 = APPROVAL_DATE_TIME ( #48, #109 ) ;
#111 = PERSON_AND_ORGANIZATION ( #142, #182 ) ;
#112 = DIRECTION ( 'NONE',  ( 3.430248998885766176E-15, -1.000000000000000000, -0.000000000000000000 ) ) ;
#113 = AXIS2_PLACEMENT_3D ( 'NONE', #187, #24, #83 ) ;
#114 = APPROVAL_STATUS ( 'not_yet_approved' ) ;
#115 = EDGE_CURVE ( 'NONE', #178, #26, #133, .T. ) ;
#116 = APPROVAL_ROLE ( '' ) ;
#117 = LOCAL_TIME ( 12, 42, 35.00000000000000000, #6 ) ;
#118 = PERSON_AND_ORGANIZATION ( #142, #182 ) ;
#119 = EDGE_LOOP ( 'NONE', ( #134, #102, #145, #123 ) ) ;
#120 = ORIENTED_EDGE ( 'NONE', *, *, #46, .T. ) ;
#121 = APPROVAL_PERSON_ORGANIZATION ( #61, #109, #138 ) ;
#122 = FACE_OUTER_BOUND ( 'NONE', #184, .T. ) ;
#123 = ORIENTED_EDGE ( 'NONE', *, *, #46, .F. ) ;
#124 = APPLICATION_PROTOCOL_DEFINITION ( 'international standard', 'config_control_design', 1994, #92 ) ;
#125 = VECTOR ( 'NONE', #112, 1000.000000000000000 ) ;
#126 = PRODUCT_RELATED_PRODUCT_CATEGORY ( 'detail', '', ( #31 ) ) ;
#127 = PRODUCT_DEFINITION_SHAPE ( 'NONE', 'NONE',  #172 ) ;
#128 = DIRECTION ( 'NONE',  ( -1.224646799147353207E-16, -4.200843456763866711E-31, -1.000000000000000000 ) ) ;
#129 = ORIENTED_EDGE ( 'NONE', *, *, #115, .F. ) ;
#130 = EDGE_CURVE ( 'NONE', #73, #26, #23, .T. ) ;
#131 = FACE_OUTER_BOUND ( 'NONE', #104, .T. ) ;
#132 = ORIENTED_EDGE ( 'NONE', *, *, #143, .F. ) ;
#133 = CIRCLE ( 'NONE', #69, 14.99999999999999822 ) ;
#134 = ORIENTED_EDGE ( 'NONE', *, *, #49, .F. ) ;
#135 = APPROVAL_STATUS ( 'not_yet_approved' ) ;
#136 = PERSON_AND_ORGANIZATION ( #142, #182 ) ;
#137 = CC_DESIGN_SECURITY_CLASSIFICATION ( #67, ( #13 ) ) ;
#138 = APPROVAL_ROLE ( '' ) ;
#139 = CC_DESIGN_PERSON_AND_ORGANIZATION_ASSIGNMENT ( #16, #78, ( #13 ) ) ;
#140 = CARTESIAN_POINT ( 'NONE',  ( 4.550739546718521521E-14, -13.26649916142157437, 0.000000000000000000 ) ) ;
#141 = DATE_AND_TIME ( #81, #40 ) ;
#142 = PERSON ( 'UNSPECIFIED', 'UNSPECIFIED', 'UNSPECIFIED', ('UNSPECIFIED'), ('UNSPECIFIED'), ('UNSPECIFIED') ) ;
#143 = EDGE_CURVE ( 'NONE', #177, #178, #101, .T. ) ;
#144 = CC_DESIGN_APPROVAL ( #109, ( #13 ) ) ;
#145 = ORIENTED_EDGE ( 'NONE', *, *, #169, .T. ) ;
#146 = ORIENTED_EDGE ( 'NONE', *, *, #74, .T. ) ;
#147 = CC_DESIGN_PERSON_AND_ORGANIZATION_ASSIGNMENT ( #136, #4, ( #172 ) ) ;
#148 =( GEOMETRIC_REPRESENTATION_CONTEXT ( 3 ) GLOBAL_UNCERTAINTY_ASSIGNED_CONTEXT ( ( #38 ) ) GLOBAL_UNIT_ASSIGNED_CONTEXT ( ( #168, #65, #166 ) ) REPRESENTATION_CONTEXT ( 'NONE', 'WORKASPACE' ) );
#149 = CARTESIAN_POINT ( 'NONE',  ( -6.999999999999997335, -13.26649916142159924, 0.000000000000000000 ) ) ;
#150 = CYLINDRICAL_SURFACE ( 'NONE', #44, 6.999999999999996447 ) ;
#151 = EDGE_CURVE ( 'NONE', #178, #26, #18, .T. ) ;
#152 = SPHERICAL_SURFACE ( 'NONE', #113, 14.99999999999999822 ) ;
#153 = AXIS2_PLACEMENT_3D ( 'NONE', #80, #156, #1 ) ;
#154 = CARTESIAN_POINT ( 'NONE',  ( -6.999999999999996447, -2.401174299220035100E-14, 8.572527594031468259E-16 ) ) ;
#155 = DATE_AND_TIME ( #32, #191 ) ;
#156 = DIRECTION ( 'NONE',  ( 3.430248998885766176E-15, -1.000000000000000000, -0.000000000000000000 ) ) ;
#157 = CC_DESIGN_PERSON_AND_ORGANIZATION_ASSIGNMENT ( #35, #93, ( #13 ) ) ;
#158 = SECURITY_CLASSIFICATION_LEVEL ( 'unclassified' ) ;
#159 = APPROVAL_DATE_TIME ( #22, #42 ) ;
#160 = DIRECTION ( 'NONE',  ( 3.430248998885766176E-15, -1.000000000000000000, -0.000000000000000000 ) ) ;
#161 = DIRECTION ( 'NONE',  ( -1.000000000000000000, -3.430248998885766176E-15, 0.000000000000000000 ) ) ;
#162 = FACE_OUTER_BOUND ( 'NONE', #119, .T. ) ;
#163 = AXIS2_PLACEMENT_3D ( 'NONE', #15, #181, #51 ) ;
#164 = CARTESIAN_POINT ( 'NONE',  ( -4.550739546718537929E-14, 13.26649916142162411, 0.000000000000000000 ) ) ;
#165 = SPHERICAL_SURFACE ( 'NONE', #85, 14.99999999999999822 ) ;
#166 =( NAMED_UNIT ( * ) SI_UNIT ( $, .STERADIAN. ) SOLID_ANGLE_UNIT ( ) );
#167 = PERSON_AND_ORGANIZATION_ROLE ( 'design_owner' ) ;
#168 =( LENGTH_UNIT ( ) NAMED_UNIT ( * ) SI_UNIT ( .MILLI., .METRE. ) );
#169 = EDGE_CURVE ( 'NONE', #26, #73, #33, .T. ) ;
#170 = APPROVAL_PERSON_ORGANIZATION ( #39, #42, #116 ) ;
#171 = AXIS2_PLACEMENT_3D ( 'NONE', #47, #77, #108 ) ;
#172 = PRODUCT_DEFINITION ( 'UNKNOWN', '', #13, #50 ) ;
#173 = ORIENTED_EDGE ( 'NONE', *, *, #143, .T. ) ;
#174 = ORIENTED_EDGE ( 'NONE', *, *, #115, .T. ) ;
#175 = ORIENTED_EDGE ( 'NONE', *, *, #74, .F. ) ;
#176 = AXIS2_PLACEMENT_3D ( 'NONE', #140, #64, #3 ) ;
#177 = VERTEX_POINT ( 'NONE', #36 ) ;
#178 = VERTEX_POINT ( 'NONE', #89 ) ;
#179 = CALENDAR_DATE ( 2024, 21, 10 ) ;
#180 = MECHANICAL_CONTEXT ( 'NONE', #92, 'mechanical' ) ;
#181 = DIRECTION ( 'NONE',  ( 0.000000000000000000, 0.000000000000000000, 1.000000000000000000 ) ) ;
#182 = ORGANIZATION ( 'UNSPECIFIED', 'UNSPECIFIED', '' ) ;
#183 = DIRECTION ( 'NONE',  ( -1.000000000000000000, 0.000000000000000000, 1.224646799147353207E-16 ) ) ;
#184 = EDGE_LOOP ( 'NONE', ( #175, #173, #174, #60 ) ) ;
#185 = DIRECTION ( 'NONE',  ( 1.000000000000000000, 3.469446951953638249E-15, 0.000000000000000000 ) ) ;
#186 = VECTOR ( 'NONE', #29, 1000.000000000000000 ) ;
#187 = CARTESIAN_POINT ( 'NONE',  ( 0.000000000000000000, 0.000000000000000000, 0.000000000000000000 ) ) ;
#188 = DATE_TIME_ROLE ( 'creation_date' ) ;
#189 = CC_DESIGN_PERSON_AND_ORGANIZATION_ASSIGNMENT ( #118, #68, ( #67 ) ) ;
#190 = APPROVAL_STATUS ( 'not_yet_approved' ) ;
#191 = LOCAL_TIME ( 12, 42, 35.00000000000000000, #66 ) ;
ENDSEC;
END-ISO-10303-21;
