ISO-10303-21;
HEADER;
FILE_DESCRIPTION (( 'STEP AP203' ),
    '1' );
FILE_NAME ('OT200-10-17_2x1_6_OSTP.step',
    '2020-12-16T02:09:08',
    ( '' ),
    ( '' ),
    'SwSTEP 2.0',
    'SolidWorks 2014',
    '' );
FILE_SCHEMA (( 'CONFIG_CONTROL_DESIGN' ));
ENDSEC;

DATA;
#1 = ORIENTED_EDGE ( 'NONE', *, *, #232, .T. ) ;
#2 = CC_DESIGN_PERSON_AND_ORGANIZATION_ASSIGNMENT ( #152, #187, ( #166 ) ) ;
#3 = EDGE_CURVE ( 'NONE', #134, #37, #75, .T. ) ;
#4 = FACE_BOUND ( 'NONE', #220, .T. ) ;
#5 = ORIENTED_EDGE ( 'NONE', *, *, #215, .T. ) ;
#6 = SHAPE_DEFINITION_REPRESENTATION ( #88, #43 ) ;
#7 = EDGE_LOOP ( 'NONE', ( #9, #68 ) ) ;
#8 = SECURITY_CLASSIFICATION ( '', '', #113 ) ;
#9 = ORIENTED_EDGE ( 'NONE', *, *, #242, .F. ) ;
#10 = ADVANCED_FACE ( 'NONE', ( #165 ), #125, .F. ) ;
#11 = DIRECTION ( 'NONE',  ( 0.0000000000000000000, 1.000000000000000000, 0.0000000000000000000 ) ) ;
#12 = COORDINATED_UNIVERSAL_TIME_OFFSET ( 1, 0, .AHEAD. ) ;
#13 = DIRECTION ( 'NONE',  ( 0.0000000000000000000, 1.000000000000000000, 0.0000000000000000000 ) ) ;
#14 = CIRCLE ( 'NONE', #141, 6.999999999999996400 ) ;
#15 = DIRECTION ( 'NONE',  ( 0.0000000000000000000, 0.0000000000000000000, 1.000000000000000000 ) ) ;
#16 = ORIENTED_EDGE ( 'NONE', *, *, #213, .T. ) ;
#17 = AXIS2_PLACEMENT_3D ( 'NONE', #158, #103, #247 ) ;
#18 = CARTESIAN_POINT ( 'NONE',  ( 28.00000000000002500, 0.0000000000000000000, 0.0000000000000000000 ) ) ;
#19 = PRODUCT_RELATED_PRODUCT_CATEGORY ( 'detail', '', ( #71 ) ) ;
#20 = ORIENTED_EDGE ( 'NONE', *, *, #90, .T. ) ;
#21 = COORDINATED_UNIVERSAL_TIME_OFFSET ( 1, 0, .AHEAD. ) ;
#22 = FACE_OUTER_BOUND ( 'NONE', #236, .T. ) ;
#23 = TOROIDAL_SURFACE ( 'NONE', #101, 28.00000000000002500, 8.599999999999996100 ) ;
#24 = DESIGN_CONTEXT ( 'detailed design', #167, 'design' ) ;
#25 = ADVANCED_FACE ( 'NONE', ( #22 ), #196, .T. ) ;
#26 = CALENDAR_DATE ( 2020, 16, 12 ) ;
#27 = DIRECTION ( 'NONE',  ( 1.000000000000000000, 0.0000000000000000000, 0.0000000000000000000 ) ) ;
#28 = AXIS2_PLACEMENT_3D ( 'NONE', #110, #162, #182 ) ;
#29 = ORIENTED_EDGE ( 'NONE', *, *, #232, .F. ) ;
#30 = ADVANCED_FACE ( 'NONE', ( #97 ), #23, .T. ) ;
#31 =( GEOMETRIC_REPRESENTATION_CONTEXT ( 3 ) GLOBAL_UNCERTAINTY_ASSIGNED_CONTEXT ( ( #118 ) ) GLOBAL_UNIT_ASSIGNED_CONTEXT ( ( #106, #87, #230 ) ) REPRESENTATION_CONTEXT ( 'NONE', 'WORKASPACE' ) );
#32 = ORIENTED_EDGE ( 'NONE', *, *, #215, .F. ) ;
#33 = PLANE ( 'NONE',  #28 ) ;
#34 = DIRECTION ( 'NONE',  ( 1.000000000000000000, 0.0000000000000000000, 0.0000000000000000000 ) ) ;
#35 = PERSON_AND_ORGANIZATION ( #227, #243 ) ;
#36 = DIRECTION ( 'NONE',  ( 0.0000000000000000000, 1.000000000000000000, 0.0000000000000000000 ) ) ;
#37 = VERTEX_POINT ( 'NONE', #85 ) ;
#38 = CARTESIAN_POINT ( 'NONE',  ( 28.00000000000002500, 28.00000000000002500, 0.0000000000000000000 ) ) ;
#39 = PERSON_AND_ORGANIZATION_ROLE ( 'classification_officer' ) ;
#40 = CIRCLE ( 'NONE', #117, 21.00000000000003200 ) ;
#41 = VERTEX_POINT ( 'NONE', #49 ) ;
#42 = DATE_TIME_ROLE ( 'classification_date' ) ;
#43 = ADVANCED_BREP_SHAPE_REPRESENTATION ( 'OT200-10-17_2x1_6_OSTP', ( #190, #208 ), #31 ) ;
#44 = APPROVAL_PERSON_ORGANIZATION ( #102, #45, #78 ) ;
#45 = APPROVAL ( #96, 'UNSPECIFIED' ) ;
#46 = FACE_OUTER_BOUND ( 'NONE', #7, .T. ) ;
#47 = AXIS2_PLACEMENT_3D ( 'NONE', #176, #69, #248 ) ;
#48 = ADVANCED_FACE ( 'NONE', ( #4, #46 ), #222, .F. ) ;
#49 = CARTESIAN_POINT ( 'NONE',  ( 8.599999999999996100, 0.0000000000000000000, -1.053196247266723300E-015 ) ) ;
#50 = APPROVAL_DATE_TIME ( #168, #178 ) ;
#51 = CIRCLE ( 'NONE', #151, 8.599999999999996100 ) ;
#52 = ORIENTED_EDGE ( 'NONE', *, *, #193, .T. ) ;
#53 = CARTESIAN_POINT ( 'NONE',  ( -8.599999999999996100, 0.0000000000000000000, 0.0000000000000000000 ) ) ;
#54 = DIRECTION ( 'NONE',  ( 0.0000000000000000000, 0.0000000000000000000, 1.000000000000000000 ) ) ;
#55 = CIRCLE ( 'NONE', #155, 36.60000000000002300 ) ;
#56 = DIRECTION ( 'NONE',  ( 1.000000000000000000, 0.0000000000000000000, 0.0000000000000000000 ) ) ;
#57 = EDGE_LOOP ( 'NONE', ( #169, #136, #29, #225 ) ) ;
#58 = DIRECTION ( 'NONE',  ( 0.0000000000000000000, 1.000000000000000000, 0.0000000000000000000 ) ) ;
#59 = LOCAL_TIME ( 3, 9, 8.000000000000000000, #246 ) ;
#60 = DIRECTION ( 'NONE',  ( 0.0000000000000000000, 1.000000000000000000, 0.0000000000000000000 ) ) ;
#61 = APPROVAL_PERSON_ORGANIZATION ( #124, #216, #209 ) ;
#62 = AXIS2_PLACEMENT_3D ( 'NONE', #38, #94, #36 ) ;
#63 = MECHANICAL_CONTEXT ( 'NONE', #147, 'mechanical' ) ;
#64 = ORIENTED_EDGE ( 'NONE', *, *, #193, .F. ) ;
#65 = CC_DESIGN_APPROVAL ( #178, ( #166 ) ) ;
#66 = ORIENTED_EDGE ( 'NONE', *, *, #205, .F. ) ;
#67 = CC_DESIGN_APPROVAL ( #45, ( #8 ) ) ;
#68 = ORIENTED_EDGE ( 'NONE', *, *, #201, .F. ) ;
#69 = DIRECTION ( 'NONE',  ( 0.0000000000000000000, 1.000000000000000000, 0.0000000000000000000 ) ) ;
#70 = DIRECTION ( 'NONE',  ( 1.000000000000000000, 0.0000000000000000000, 0.0000000000000000000 ) ) ;
#71 = PRODUCT ( 'OT200-10-17_2x1_6_OSTP', 'OT200-10-17_2x1_6_OSTP', '', ( #63 ) ) ;
#72 = DIRECTION ( 'NONE',  ( 1.000000000000000000, 0.0000000000000000000, 0.0000000000000000000 ) ) ;
#73 = AXIS2_PLACEMENT_3D ( 'NONE', #251, #131, #56 ) ;
#74 = CARTESIAN_POINT ( 'NONE',  ( 28.00000000000002500, 0.0000000000000000000, -1.053196247266723300E-015 ) ) ;
#75 = CIRCLE ( 'NONE', #217, 6.999999999999999100 ) ;
#76 = CARTESIAN_POINT ( 'NONE',  ( 28.00000000000002500, 0.0000000000000000000, 0.0000000000000000000 ) ) ;
#77 = APPROVAL_DATE_TIME ( #148, #216 ) ;
#78 = APPROVAL_ROLE ( '' ) ;
#79 = APPROVAL_ROLE ( '' ) ;
#80 = ORIENTED_EDGE ( 'NONE', *, *, #173, .T. ) ;
#81 = CALENDAR_DATE ( 2020, 16, 12 ) ;
#82 = LOCAL_TIME ( 3, 9, 8.000000000000000000, #181 ) ;
#83 = CARTESIAN_POINT ( 'NONE',  ( 6.999999999999997300, 0.0000000000000000000, -8.572527594031470200E-016 ) ) ;
#84 = ORIENTED_EDGE ( 'NONE', *, *, #213, .F. ) ;
#85 = CARTESIAN_POINT ( 'NONE',  ( 28.00000000000002500, 35.00000000000002100, 0.0000000000000000000 ) ) ;
#86 = CARTESIAN_POINT ( 'NONE',  ( 28.00000000000002500, 0.0000000000000000000, -8.572527594031468300E-016 ) ) ;
#87 =( NAMED_UNIT ( * ) PLANE_ANGLE_UNIT ( ) SI_UNIT ( $, .RADIAN. ) );
#88 = PRODUCT_DEFINITION_SHAPE ( 'NONE', 'NONE',  #166 ) ;
#89 = DIRECTION ( 'NONE',  ( 0.0000000000000000000, 0.0000000000000000000, 1.000000000000000000 ) ) ;
#90 = EDGE_CURVE ( 'NONE', #134, #116, #40, .T. ) ;
#91 = PERSON_AND_ORGANIZATION ( #227, #243 ) ;
#92 = CARTESIAN_POINT ( 'NONE',  ( 0.0000000000000000000, 0.0000000000000000000, 0.0000000000000000000 ) ) ;
#93 = DATE_AND_TIME ( #253, #140 ) ;
#94 = DIRECTION ( 'NONE',  ( 1.000000000000000000, 6.123233995736766000E-017, 0.0000000000000000000 ) ) ;
#95 = CARTESIAN_POINT ( 'NONE',  ( -6.999999999999997300, 0.0000000000000000000, 0.0000000000000000000 ) ) ;
#96 = APPROVAL_STATUS ( 'not_yet_approved' ) ;
#97 = FACE_OUTER_BOUND ( 'NONE', #175, .T. ) ;
#98 = PERSON_AND_ORGANIZATION_ROLE ( 'design_supplier' ) ;
#99 = CIRCLE ( 'NONE', #73, 35.00000000000002800 ) ;
#100 = AXIS2_PLACEMENT_3D ( 'NONE', #144, #58, #129 ) ;
#101 = AXIS2_PLACEMENT_3D ( 'NONE', #224, #177, #72 ) ;
#102 = PERSON_AND_ORGANIZATION ( #227, #243 ) ;
#103 = DIRECTION ( 'NONE',  ( 0.0000000000000000000, 0.0000000000000000000, 1.000000000000000000 ) ) ;
#104 = CLOSED_SHELL ( 'NONE', ( #218, #25, #30, #172, #48, #10 ) ) ;
#105 = CARTESIAN_POINT ( 'NONE',  ( 28.00000000000002500, 28.00000000000002500, 0.0000000000000000000 ) ) ;
#106 =( LENGTH_UNIT ( ) NAMED_UNIT ( * ) SI_UNIT ( .MILLI., .METRE. ) );
#107 = DIRECTION ( 'NONE',  ( 0.0000000000000000000, 0.0000000000000000000, 1.000000000000000000 ) ) ;
#108 = ORIENTED_EDGE ( 'NONE', *, *, #242, .T. ) ;
#109 = CC_DESIGN_DATE_AND_TIME_ASSIGNMENT ( #93, #42, ( #8 ) ) ;
#110 = CARTESIAN_POINT ( 'NONE',  ( 28.00000000000002100, 28.00000000000002500, 0.0000000000000000000 ) ) ;
#111 = CIRCLE ( 'NONE', #250, 8.599999999999996100 ) ;
#112 = ORIENTED_EDGE ( 'NONE', *, *, #3, .F. ) ;
#113 = SECURITY_CLASSIFICATION_LEVEL ( 'unclassified' ) ;
#114 = CIRCLE ( 'NONE', #245, 8.599999999999996100 ) ;
#115 = CC_DESIGN_PERSON_AND_ORGANIZATION_ASSIGNMENT ( #229, #133, ( #237 ) ) ;
#116 = VERTEX_POINT ( 'NONE', #83 ) ;
#117 = AXIS2_PLACEMENT_3D ( 'NONE', #86, #174, #27 ) ;
#118 = UNCERTAINTY_MEASURE_WITH_UNIT (LENGTH_MEASURE( 1.000000000000000100E-005 ), #106, 'distance_accuracy_value', 'NONE');
#119 = VERTEX_POINT ( 'NONE', #53 ) ;
#120 = PERSON_AND_ORGANIZATION ( #227, #243 ) ;
#121 = EDGE_CURVE ( 'NONE', #142, #122, #111, .T. ) ;
#122 = VERTEX_POINT ( 'NONE', #143 ) ;
#123 = CC_DESIGN_SECURITY_CLASSIFICATION ( #8, ( #237 ) ) ;
#124 = PERSON_AND_ORGANIZATION ( #227, #243 ) ;
#125 = TOROIDAL_SURFACE ( 'NONE', #235, 28.00000000000002500, 6.999999999999996400 ) ;
#126 = CARTESIAN_POINT ( 'NONE',  ( 28.00000000000002500, 21.00000000000002500, -8.572527594031470200E-016 ) ) ;
#127 = AXIS2_PLACEMENT_3D ( 'NONE', #76, #228, #179 ) ;
#128 = DIRECTION ( 'NONE',  ( 0.0000000000000000000, 0.0000000000000000000, 1.000000000000000000 ) ) ;
#129 = DIRECTION ( 'NONE',  ( 0.0000000000000000000, 0.0000000000000000000, 1.000000000000000000 ) ) ;
#130 = ORIENTED_EDGE ( 'NONE', *, *, #121, .F. ) ;
#131 = DIRECTION ( 'NONE',  ( 0.0000000000000000000, 0.0000000000000000000, 1.000000000000000000 ) ) ;
#132 = LOCAL_TIME ( 3, 9, 8.000000000000000000, #21 ) ;
#133 = PERSON_AND_ORGANIZATION_ROLE ( 'creator' ) ;
#134 = VERTEX_POINT ( 'NONE', #126 ) ;
#135 = CALENDAR_DATE ( 2020, 16, 12 ) ;
#136 = ORIENTED_EDGE ( 'NONE', *, *, #205, .T. ) ;
#137 = APPROVAL_DATE_TIME ( #197, #45 ) ;
#138 = CC_DESIGN_PERSON_AND_ORGANIZATION_ASSIGNMENT ( #120, #98, ( #237 ) ) ;
#139 = AXIS2_PLACEMENT_3D ( 'NONE', #74, #54, #252 ) ;
#140 = LOCAL_TIME ( 3, 9, 8.000000000000000000, #194 ) ;
#141 = AXIS2_PLACEMENT_3D ( 'NONE', #92, #13, #161 ) ;
#142 = VERTEX_POINT ( 'NONE', #244 ) ;
#143 = CARTESIAN_POINT ( 'NONE',  ( 28.00000000000001800, 36.60000000000002300, 0.0000000000000000000 ) ) ;
#144 = CARTESIAN_POINT ( 'NONE',  ( 0.0000000000000000000, 0.0000000000000000000, 0.0000000000000000000 ) ) ;
#145 = CIRCLE ( 'NONE', #100, 8.599999999999996100 ) ;
#146 = APPLICATION_PROTOCOL_DEFINITION ( 'international standard', 'config_control_design', 1994, #147 ) ;
#147 = APPLICATION_CONTEXT ( 'configuration controlled 3d designs of mechanical parts and assemblies' ) ;
#148 = DATE_AND_TIME ( #81, #170 ) ;
#149 = APPROVAL_STATUS ( 'not_yet_approved' ) ;
#150 = EDGE_LOOP ( 'NONE', ( #207, #16 ) ) ;
#151 = AXIS2_PLACEMENT_3D ( 'NONE', #226, #164, #203 ) ;
#152 = PERSON_AND_ORGANIZATION ( #227, #243 ) ;
#153 = FACE_BOUND ( 'NONE', #184, .T. ) ;
#154 = CC_DESIGN_PERSON_AND_ORGANIZATION_ASSIGNMENT ( #35, #191, ( #71 ) ) ;
#155 = AXIS2_PLACEMENT_3D ( 'NONE', #18, #15, #34 ) ;
#156 = CARTESIAN_POINT ( 'NONE',  ( 28.00000000000002100, 28.00000000000002500, 0.0000000000000000000 ) ) ;
#157 = TOROIDAL_SURFACE ( 'NONE', #127, 28.00000000000002500, 6.999999999999996400 ) ;
#158 = CARTESIAN_POINT ( 'NONE',  ( 28.00000000000002500, 0.0000000000000000000, 0.0000000000000000000 ) ) ;
#159 = EDGE_CURVE ( 'NONE', #142, #41, #210, .T. ) ;
#160 = PERSON_AND_ORGANIZATION ( #227, #243 ) ;
#161 = DIRECTION ( 'NONE',  ( 0.0000000000000000000, 0.0000000000000000000, 1.000000000000000000 ) ) ;
#162 = DIRECTION ( 'NONE',  ( 1.000000000000000000, 6.123233995736766000E-017, -0.0000000000000000000 ) ) ;
#163 = CARTESIAN_POINT ( 'NONE',  ( 0.0000000000000000000, 0.0000000000000000000, 0.0000000000000000000 ) ) ;
#164 = DIRECTION ( 'NONE',  ( 1.000000000000000000, 6.123233995736766000E-017, 0.0000000000000000000 ) ) ;
#165 = FACE_OUTER_BOUND ( 'NONE', #241, .T. ) ;
#166 = PRODUCT_DEFINITION ( 'UNKNOWN', '', #237, #24 ) ;
#167 = APPLICATION_CONTEXT ( 'configuration controlled 3d designs of mechanical parts and assemblies' ) ;
#168 = DATE_AND_TIME ( #135, #82 ) ;
#169 = ORIENTED_EDGE ( 'NONE', *, *, #3, .T. ) ;
#170 = LOCAL_TIME ( 3, 9, 8.000000000000000000, #12 ) ;
#171 = FACE_OUTER_BOUND ( 'NONE', #150, .T. ) ;
#172 = ADVANCED_FACE ( 'NONE', ( #153, #171 ), #33, .T. ) ;
#173 = EDGE_CURVE ( 'NONE', #37, #134, #204, .T. ) ;
#174 = DIRECTION ( 'NONE',  ( 0.0000000000000000000, 0.0000000000000000000, 1.000000000000000000 ) ) ;
#175 = EDGE_LOOP ( 'NONE', ( #64, #130, #239, #108 ) ) ;
#176 = CARTESIAN_POINT ( 'NONE',  ( 0.0000000000000000000, 0.0000000000000000000, 0.0000000000000000000 ) ) ;
#177 = DIRECTION ( 'NONE',  ( 0.0000000000000000000, 0.0000000000000000000, 1.000000000000000000 ) ) ;
#178 = APPROVAL ( #233, 'UNSPECIFIED' ) ;
#179 = DIRECTION ( 'NONE',  ( 1.000000000000000000, 0.0000000000000000000, 0.0000000000000000000 ) ) ;
#180 = CARTESIAN_POINT ( 'NONE',  ( 0.0000000000000000000, 0.0000000000000000000, 0.0000000000000000000 ) ) ;
#181 = COORDINATED_UNIVERSAL_TIME_OFFSET ( 1, 0, .AHEAD. ) ;
#182 = DIRECTION ( 'NONE',  ( 0.0000000000000000000, 0.0000000000000000000, 1.000000000000000000 ) ) ;
#183 = AXIS2_PLACEMENT_3D ( 'NONE', #180, #186, #107 ) ;
#184 = EDGE_LOOP ( 'NONE', ( #112, #214 ) ) ;
#185 = CALENDAR_DATE ( 2020, 16, 12 ) ;
#186 = DIRECTION ( 'NONE',  ( 0.0000000000000000000, 1.000000000000000000, 0.0000000000000000000 ) ) ;
#187 = PERSON_AND_ORGANIZATION_ROLE ( 'creator' ) ;
#188 = DIRECTION ( 'NONE',  ( 1.000000000000000000, 0.0000000000000000000, 0.0000000000000000000 ) ) ;
#189 = APPLICATION_PROTOCOL_DEFINITION ( 'international standard', 'config_control_design', 1994, #167 ) ;
#190 = MANIFOLD_SOLID_BREP ( 'cut-body', #104 ) ;
#191 = PERSON_AND_ORGANIZATION_ROLE ( 'design_owner' ) ;
#192 = CC_DESIGN_APPROVAL ( #216, ( #237 ) ) ;
#193 = EDGE_CURVE ( 'NONE', #122, #119, #55, .T. ) ;
#194 = COORDINATED_UNIVERSAL_TIME_OFFSET ( 1, 0, .AHEAD. ) ;
#195 = CC_DESIGN_DATE_AND_TIME_ASSIGNMENT ( #234, #211, ( #166 ) ) ;
#196 = TOROIDAL_SURFACE ( 'NONE', #17, 28.00000000000002500, 8.599999999999996100 ) ;
#197 = DATE_AND_TIME ( #185, #59 ) ;
#198 = DIRECTION ( 'NONE',  ( 1.000000000000000000, 6.123233995736766000E-017, 0.0000000000000000000 ) ) ;
#199 = DIRECTION ( 'NONE',  ( 1.000000000000000000, 6.123233995736766000E-017, 0.0000000000000000000 ) ) ;
#200 = ORIENTED_EDGE ( 'NONE', *, *, #201, .T. ) ;
#201 = EDGE_CURVE ( 'NONE', #119, #41, #145, .T. ) ;
#202 = CARTESIAN_POINT ( 'NONE',  ( 28.00000000000002500, 0.0000000000000000000, 0.0000000000000000000 ) ) ;
#203 = DIRECTION ( 'NONE',  ( 0.0000000000000000000, 0.0000000000000000000, 1.000000000000000000 ) ) ;
#204 = CIRCLE ( 'NONE', #62, 6.999999999999999100 ) ;
#205 = EDGE_CURVE ( 'NONE', #37, #231, #99, .T. ) ;
#206 = CARTESIAN_POINT ( 'NONE',  ( 0.0000000000000000000, 0.0000000000000000000, 0.0000000000000000000 ) ) ;
#207 = ORIENTED_EDGE ( 'NONE', *, *, #121, .T. ) ;
#208 = AXIS2_PLACEMENT_3D ( 'NONE', #206, #128, #188 ) ;
#209 = APPROVAL_ROLE ( '' ) ;
#210 = CIRCLE ( 'NONE', #139, 19.40000000000002700 ) ;
#211 = DATE_TIME_ROLE ( 'creation_date' ) ;
#212 = CC_DESIGN_PERSON_AND_ORGANIZATION_ASSIGNMENT ( #160, #39, ( #8 ) ) ;
#213 = EDGE_CURVE ( 'NONE', #122, #142, #51, .T. ) ;
#214 = ORIENTED_EDGE ( 'NONE', *, *, #173, .F. ) ;
#215 = EDGE_CURVE ( 'NONE', #231, #116, #240, .T. ) ;
#216 = APPROVAL ( #149, 'UNSPECIFIED' ) ;
#217 = AXIS2_PLACEMENT_3D ( 'NONE', #105, #199, #11 ) ;
#218 = ADVANCED_FACE ( 'NONE', ( #223 ), #157, .F. ) ;
#219 = DIRECTION ( 'NONE',  ( 0.0000000000000000000, 0.0000000000000000000, 1.000000000000000000 ) ) ;
#220 = EDGE_LOOP ( 'NONE', ( #1, #5 ) ) ;
#221 = DIRECTION ( 'NONE',  ( 0.0000000000000000000, 0.0000000000000000000, 1.000000000000000000 ) ) ;
#222 = PLANE ( 'NONE',  #47 ) ;
#223 = FACE_OUTER_BOUND ( 'NONE', #57, .T. ) ;
#224 = CARTESIAN_POINT ( 'NONE',  ( 28.00000000000002500, 0.0000000000000000000, 0.0000000000000000000 ) ) ;
#225 = ORIENTED_EDGE ( 'NONE', *, *, #90, .F. ) ;
#226 = CARTESIAN_POINT ( 'NONE',  ( 28.00000000000002100, 28.00000000000002500, 0.0000000000000000000 ) ) ;
#227 = PERSON ( 'UNSPECIFIED', 'UNSPECIFIED', 'UNSPECIFIED', ('UNSPECIFIED'), ('UNSPECIFIED'), ('UNSPECIFIED') ) ;
#228 = DIRECTION ( 'NONE',  ( 0.0000000000000000000, 0.0000000000000000000, 1.000000000000000000 ) ) ;
#229 = PERSON_AND_ORGANIZATION ( #227, #243 ) ;
#230 =( NAMED_UNIT ( * ) SI_UNIT ( $, .STERADIAN. ) SOLID_ANGLE_UNIT ( ) );
#231 = VERTEX_POINT ( 'NONE', #95 ) ;
#232 = EDGE_CURVE ( 'NONE', #116, #231, #14, .T. ) ;
#233 = APPROVAL_STATUS ( 'not_yet_approved' ) ;
#234 = DATE_AND_TIME ( #26, #132 ) ;
#235 = AXIS2_PLACEMENT_3D ( 'NONE', #202, #221, #70 ) ;
#236 = EDGE_LOOP ( 'NONE', ( #84, #52, #200, #249 ) ) ;
#237 = PRODUCT_DEFINITION_FORMATION_WITH_SPECIFIED_SOURCE ( 'ANY', '', #71, .NOT_KNOWN. ) ;
#238 = APPROVAL_PERSON_ORGANIZATION ( #91, #178, #79 ) ;
#239 = ORIENTED_EDGE ( 'NONE', *, *, #159, .T. ) ;
#240 = CIRCLE ( 'NONE', #183, 6.999999999999996400 ) ;
#241 = EDGE_LOOP ( 'NONE', ( #66, #80, #20, #32 ) ) ;
#242 = EDGE_CURVE ( 'NONE', #41, #119, #114, .T. ) ;
#243 = ORGANIZATION ( 'UNSPECIFIED', 'UNSPECIFIED', '' ) ;
#244 = CARTESIAN_POINT ( 'NONE',  ( 28.00000000000002100, 19.40000000000002700, -1.053196247266723300E-015 ) ) ;
#245 = AXIS2_PLACEMENT_3D ( 'NONE', #163, #60, #89 ) ;
#246 = COORDINATED_UNIVERSAL_TIME_OFFSET ( 1, 0, .AHEAD. ) ;
#247 = DIRECTION ( 'NONE',  ( 1.000000000000000000, 0.0000000000000000000, 0.0000000000000000000 ) ) ;
#248 = DIRECTION ( 'NONE',  ( 0.0000000000000000000, -0.0000000000000000000, 1.000000000000000000 ) ) ;
#249 = ORIENTED_EDGE ( 'NONE', *, *, #159, .F. ) ;
#250 = AXIS2_PLACEMENT_3D ( 'NONE', #156, #198, #219 ) ;
#251 = CARTESIAN_POINT ( 'NONE',  ( 28.00000000000002500, 0.0000000000000000000, 0.0000000000000000000 ) ) ;
#252 = DIRECTION ( 'NONE',  ( 1.000000000000000000, 0.0000000000000000000, 0.0000000000000000000 ) ) ;
#253 = CALENDAR_DATE ( 2020, 16, 12 ) ;
ENDSEC;
END-ISO-10303-21;
