ISO-10303-21;
HEADER;
FILE_DESCRIPTION (( 'STEP AP203' ),
    '1' );
FILE_NAME ('3D_R175_DN60.3x2_17336246.STEP',
    '2024-07-18T10:10:35',
    ( '' ),
    ( '' ),
    'SwSTEP 2.0',
    'SolidWorks 2024',
    '' );
FILE_SCHEMA (( 'CONFIG_CONTROL_DESIGN' ));
ENDSEC;

DATA;
#1 = AXIS2_PLACEMENT_3D ( 'NONE', #69, #319, #260 ) ;
#2 = EDGE_CURVE ( 'NONE', #133, #290, #255, .T. ) ;
#3 = DIRECTION ( 'NONE',  ( 4.596983092540343816E-18, 1.000000000000000000, -0.000000000000000000 ) ) ;
#4 = ORIENTED_EDGE ( 'NONE', *, *, #220, .F. ) ;
#5 = PERSON_AND_ORGANIZATION_ROLE ( 'classification_officer' ) ;
#6 = CARTESIAN_POINT ( 'NONE',  ( 9.236488298952508525E-16, 0.000000000000000000, 0.000000000000000000 ) ) ;
#7 = ORIENTED_EDGE ( 'NONE', *, *, #249, .T. ) ;
#8 = AXIS2_PLACEMENT_3D ( 'NONE', #122, #376, #97 ) ;
#9 = AXIS2_PLACEMENT_3D ( 'NONE', #48, #19, #68 ) ;
#10 = EDGE_CURVE ( 'NONE', #105, #157, #185, .T. ) ;
#11 = DIRECTION ( 'NONE',  ( -1.000000000000000000, 0.000000000000000000, 0.000000000000000000 ) ) ;
#12 = DIRECTION ( 'NONE',  ( -1.000000000000000000, 0.000000000000000000, 0.000000000000000000 ) ) ;
#13 = ORIENTED_EDGE ( 'NONE', *, *, #44, .T. ) ;
#14 = CARTESIAN_POINT ( 'NONE',  ( 5.907696159086806760E-15, -26.23999999999999844, 0.000000000000000000 ) ) ;
#15 = EDGE_LOOP ( 'NONE', ( #98, #258, #156 ) ) ;
#16 = DIRECTION ( 'NONE',  ( 1.000000000000000000, 0.000000000000000000, 1.224646799147353207E-16 ) ) ;
#17 = EDGE_CURVE ( 'NONE', #31, #315, #106, .T. ) ;
#18 = EDGE_LOOP ( 'NONE', ( #40, #203, #232, #4 ) ) ;
#19 = DIRECTION ( 'NONE',  ( -0.000000000000000000, 0.000000000000000000, -1.000000000000000000 ) ) ;
#20 = COORDINATED_UNIVERSAL_TIME_OFFSET ( 1, 0, .AHEAD. ) ;
#21 = PERSON_AND_ORGANIZATION ( #136, #111 ) ;
#22 = AXIS2_PLACEMENT_3D ( 'NONE', #107, #210, #57 ) ;
#23 = SPHERICAL_SURFACE ( 'NONE', #357, 44.24000000000000199 ) ;
#24 = CARTESIAN_POINT ( 'NONE',  ( -30.14999999999999858, 5.420811739435649201, 0.000000000000000000 ) ) ;
#25 = CC_DESIGN_PERSON_AND_ORGANIZATION_ASSIGNMENT ( #330, #53, ( #267 ) ) ;
#26 = CARTESIAN_POINT ( 'NONE',  ( 5.907696159086806760E-15, -26.23999999999999844, 0.000000000000000000 ) ) ;
#27 = AXIS2_PLACEMENT_3D ( 'NONE', #344, #3, #343 ) ;
#28 = DIRECTION ( 'NONE',  ( -0.000000000000000000, 0.000000000000000000, -1.000000000000000000 ) ) ;
#29 = DATE_AND_TIME ( #89, #278 ) ;
#30 =( NAMED_UNIT ( * ) SI_UNIT ( $, .STERADIAN. ) SOLID_ANGLE_UNIT ( ) );
#31 = VERTEX_POINT ( 'NONE', #139 ) ;
#32 = ORIENTED_EDGE ( 'NONE', *, *, #2, .T. ) ;
#33 = ORIENTED_EDGE ( 'NONE', *, *, #193, .F. ) ;
#34 = CARTESIAN_POINT ( 'NONE',  ( 26.07896925628267581, 9.496045703601053489, 3.320566681038340181E-15 ) ) ;
#35 = CARTESIAN_POINT ( 'NONE',  ( -26.07896925628266160, 9.496045703601053489, 0.000000000000000000 ) ) ;
#36 = ORIENTED_EDGE ( 'NONE', *, *, #17, .T. ) ;
#37 = CIRCLE ( 'NONE', #353, 26.07896925628266871 ) ;
#38 = ORIENTED_EDGE ( 'NONE', *, *, #17, .F. ) ;
#39 = CIRCLE ( 'NONE', #103, 26.07896925628266871 ) ;
#40 = ORIENTED_EDGE ( 'NONE', *, *, #193, .T. ) ;
#41 = LINE ( 'NONE', #102, #87 ) ;
#42 = APPROVAL ( #335, 'UNSPECIFIED' ) ;
#43 = ORIENTED_EDGE ( 'NONE', *, *, #400, .T. ) ;
#44 = EDGE_CURVE ( 'NONE', #341, #390, #37, .T. ) ;
#45 = AXIS2_PLACEMENT_3D ( 'NONE', #408, #119, #273 ) ;
#46 = DIRECTION ( 'NONE',  ( -1.224646799147353207E-16, 5.629680630014033300E-34, 1.000000000000000000 ) ) ;
#47 = APPROVAL_PERSON_ORGANIZATION ( #311, #154, #213 ) ;
#48 = CARTESIAN_POINT ( 'NONE',  ( -23.10500000000000043, 5.420811739435864141, 0.000000000000000000 ) ) ;
#49 = DIRECTION ( 'NONE',  ( 4.596983092540343816E-18, 1.000000000000000000, -0.000000000000000000 ) ) ;
#50 = ADVANCED_FACE ( 'NONE', ( #76 ), #175, .T. ) ;
#51 = DIRECTION ( 'NONE',  ( 0.000000000000000000, 0.000000000000000000, 1.000000000000000000 ) ) ;
#52 = DIRECTION ( 'NONE',  ( -0.000000000000000000, 0.000000000000000000, -1.000000000000000000 ) ) ;
#53 = PERSON_AND_ORGANIZATION_ROLE ( 'creator' ) ;
#54 = CALENDAR_DATE ( 2024, 18, 7 ) ;
#55 = AXIS2_PLACEMENT_3D ( 'NONE', #26, #274, #150 ) ;
#56 = DESIGN_CONTEXT ( 'detailed design', #389, 'design' ) ;
#57 = DIRECTION ( 'NONE',  ( -1.000000000000000000, 4.596983092540343816E-18, 0.000000000000000000 ) ) ;
#58 = CARTESIAN_POINT ( 'NONE',  ( 0.000000000000000000, 5.420811739435864141, 0.000000000000000000 ) ) ;
#59 = COORDINATED_UNIVERSAL_TIME_OFFSET ( 1, 0, .AHEAD. ) ;
#60 = DIRECTION ( 'NONE',  ( 4.596983092540343816E-18, 1.000000000000000000, -0.000000000000000000 ) ) ;
#61 = ADVANCED_FACE ( 'NONE', ( #386 ), #167, .F. ) ;
#62 = DIRECTION ( 'NONE',  ( -1.000000000000000000, 4.596983092540343816E-18, 0.000000000000000000 ) ) ;
#63 = CIRCLE ( 'NONE', #114, 27.25794616660288128 ) ;
#64 = ORIENTED_EDGE ( 'NONE', *, *, #146, .F. ) ;
#65 = DIRECTION ( 'NONE',  ( 4.596983092540343816E-18, 1.000000000000000000, -0.000000000000000000 ) ) ;
#66 = EDGE_LOOP ( 'NONE', ( #130, #36, #294, #364 ) ) ;
#67 = ORIENTED_EDGE ( 'NONE', *, *, #400, .F. ) ;
#68 = DIRECTION ( 'NONE',  ( -1.000000000000000000, 0.000000000000000000, 0.000000000000000000 ) ) ;
#69 = CARTESIAN_POINT ( 'NONE',  ( 9.236488298952508525E-16, 0.000000000000000000, 0.000000000000000000 ) ) ;
#70 = AXIS2_PLACEMENT_3D ( 'NONE', #173, #72, #361 ) ;
#71 = ORIENTED_EDGE ( 'NONE', *, *, #181, .T. ) ;
#72 = DIRECTION ( 'NONE',  ( 0.000000000000000000, 0.000000000000000000, 1.000000000000000000 ) ) ;
#73 = ADVANCED_FACE ( 'NONE', ( #355 ), #405, .F. ) ;
#74 = ORIENTED_EDGE ( 'NONE', *, *, #320, .T. ) ;
#75 = AXIS2_PLACEMENT_3D ( 'NONE', #225, #92, #90 ) ;
#76 = FACE_OUTER_BOUND ( 'NONE', #18, .T. ) ;
#77 = SECURITY_CLASSIFICATION ( '', '', #121 ) ;
#78 = DIRECTION ( 'NONE',  ( -1.000000000000000000, 0.000000000000000000, 0.000000000000000000 ) ) ;
#79 = CARTESIAN_POINT ( 'NONE',  ( 9.485682098092811183E-16, 5.420811739435649201, 0.000000000000000000 ) ) ;
#80 = CARTESIAN_POINT ( 'NONE',  ( 28.15000000000000213, 5.420811739435710486, 3.447380739599799706E-15 ) ) ;
#81 = APPROVAL_ROLE ( '' ) ;
#82 = PLANE ( 'NONE',  #142 ) ;
#83 = ADVANCED_FACE ( 'NONE', ( #370 ), #304, .F. ) ;
#84 = CARTESIAN_POINT ( 'NONE',  ( -23.10500000000000043, 5.420811739435864141, 0.000000000000000000 ) ) ;
#85 = ORIENTED_EDGE ( 'NONE', *, *, #291, .T. ) ;
#86 = EDGE_CURVE ( 'NONE', #31, #105, #231, .T. ) ;
#87 = VECTOR ( 'NONE', #233, 1000.000000000000000 ) ;
#88 = CARTESIAN_POINT ( 'NONE',  ( -28.15000000000000213, 1.294050740550106935E-16, 0.000000000000000000 ) ) ;
#89 = CALENDAR_DATE ( 2024, 18, 7 ) ;
#90 = DIRECTION ( 'NONE',  ( 1.000000000000000000, 0.000000000000000000, 1.224646799147352714E-16 ) ) ;
#91 = DATE_AND_TIME ( #410, #96 ) ;
#92 = DIRECTION ( 'NONE',  ( -1.224646799147353207E-16, 5.629680630014033300E-34, 1.000000000000000000 ) ) ;
#93 = AXIS2_PLACEMENT_3D ( 'NONE', #117, #28, #152 ) ;
#94 = CC_DESIGN_PERSON_AND_ORGANIZATION_ASSIGNMENT ( #118, #5, ( #77 ) ) ;
#95 = CARTESIAN_POINT ( 'NONE',  ( 27.25794616660287772, 11.11159930683802699, 3.515222875927689607E-15 ) ) ;
#96 = LOCAL_TIME ( 12, 10, 35.00000000000000000, #59 ) ;
#97 = DIRECTION ( 'NONE',  ( -1.000000000000000000, 4.596983092540343816E-18, 0.000000000000000000 ) ) ;
#98 = ORIENTED_EDGE ( 'NONE', *, *, #44, .F. ) ;
#99 = ORIENTED_EDGE ( 'NONE', *, *, #160, .T. ) ;
#100 = ADVANCED_FACE ( 'NONE', ( #401 ), #23, .F. ) ;
#101 = ORIENTED_EDGE ( 'NONE', *, *, #181, .F. ) ;
#102 = CARTESIAN_POINT ( 'NONE',  ( -30.14999999999998437, 2817.965330118411202, 0.000000000000000000 ) ) ;
#103 = AXIS2_PLACEMENT_3D ( 'NONE', #202, #131, #78 ) ;
#104 = EDGE_LOOP ( 'NONE', ( #38, #246, #321, #293 ) ) ;
#105 = VERTEX_POINT ( 'NONE', #24 ) ;
#106 = CIRCLE ( 'NONE', #165, 7.044999999999999041 ) ;
#107 = CARTESIAN_POINT ( 'NONE',  ( 0.000000000000000000, 5.420811739435864141, 0.000000000000000000 ) ) ;
#108 = CARTESIAN_POINT ( 'NONE',  ( 3.288877257657192378E-15, 20.00000000000000355, 0.000000000000000000 ) ) ;
#109 = AXIS2_PLACEMENT_3D ( 'NONE', #176, #296, #395 ) ;
#110 = CALENDAR_DATE ( 2024, 18, 7 ) ;
#111 = ORGANIZATION ( 'UNSPECIFIED', 'UNSPECIFIED', '' ) ;
#112 = DATE_TIME_ROLE ( 'creation_date' ) ;
#113 = APPROVAL_DATE_TIME ( #148, #300 ) ;
#114 = AXIS2_PLACEMENT_3D ( 'NONE', #155, #60, #385 ) ;
#115 = ADVANCED_FACE ( 'NONE', ( #147 ), #373, .T. ) ;
#116 = FACE_OUTER_BOUND ( 'NONE', #379, .T. ) ;
#117 = CARTESIAN_POINT ( 'NONE',  ( 5.907696159086806760E-15, -26.23999999999999844, 0.000000000000000000 ) ) ;
#118 = PERSON_AND_ORGANIZATION ( #136, #111 ) ;
#119 = DIRECTION ( 'NONE',  ( -1.224646799147353207E-16, 5.629680630014033300E-34, 1.000000000000000000 ) ) ;
#120 = CARTESIAN_POINT ( 'NONE',  ( 28.15000000000001634, 2817.965330118411202, 3.447380739599799706E-15 ) ) ;
#121 = SECURITY_CLASSIFICATION_LEVEL ( 'unclassified' ) ;
#122 = CARTESIAN_POINT ( 'NONE',  ( 0.000000000000000000, 5.420811739435864141, 0.000000000000000000 ) ) ;
#123 = ORIENTED_EDGE ( 'NONE', *, *, #281, .F. ) ;
#124 = CC_DESIGN_DATE_AND_TIME_ASSIGNMENT ( #402, #112, ( #267 ) ) ;
#125 = ORIENTED_EDGE ( 'NONE', *, *, #281, .T. ) ;
#126 = ADVANCED_FACE ( 'NONE', ( #277 ), #241, .T. ) ;
#127 = AXIS2_PLACEMENT_3D ( 'NONE', #58, #338, #62 ) ;
#128 = CARTESIAN_POINT ( 'NONE',  ( 1.387778780781445676E-14, 2817.965330118411202, 0.000000000000000000 ) ) ;
#129 = CC_DESIGN_APPROVAL ( #42, ( #267 ) ) ;
#130 = ORIENTED_EDGE ( 'NONE', *, *, #197, .T. ) ;
#131 = DIRECTION ( 'NONE',  ( 4.596983092540343816E-18, 1.000000000000000000, -0.000000000000000000 ) ) ;
#132 = ADVANCED_FACE ( 'NONE', ( #116 ), #289, .F. ) ;
#133 = VERTEX_POINT ( 'NONE', #262 ) ;
#134 = EDGE_LOOP ( 'NONE', ( #67, #85, #99, #101 ) ) ;
#135 = FACE_BOUND ( 'NONE', #169, .T. ) ;
#136 = PERSON ( 'UNSPECIFIED', 'UNSPECIFIED', 'UNSPECIFIED', ('UNSPECIFIED'), ('UNSPECIFIED'), ('UNSPECIFIED') ) ;
#137 = ORIENTED_EDGE ( 'NONE', *, *, #86, .F. ) ;
#138 = LINE ( 'NONE', #394, #298 ) ;
#139 = CARTESIAN_POINT ( 'NONE',  ( 30.14999999999999858, 5.420811739435649201, 3.692310099429270397E-15 ) ) ;
#140 = CARTESIAN_POINT ( 'NONE',  ( -7.076607387093012613E-31, 5.420811739435710486, 0.000000000000000000 ) ) ;
#141 = MECHANICAL_CONTEXT ( 'NONE', #234, 'mechanical' ) ;
#142 = AXIS2_PLACEMENT_3D ( 'NONE', #406, #215, #270 ) ;
#143 = COORDINATED_UNIVERSAL_TIME_OFFSET ( 1, 0, .AHEAD. ) ;
#144 = CARTESIAN_POINT ( 'NONE',  ( 5.907696159086806760E-15, -26.23999999999999844, 0.000000000000000000 ) ) ;
#145 = PERSON_AND_ORGANIZATION ( #136, #111 ) ;
#146 = EDGE_CURVE ( 'NONE', #390, #341, #39, .T. ) ;
#147 = FACE_OUTER_BOUND ( 'NONE', #282, .T. ) ;
#148 = DATE_AND_TIME ( #54, #368 ) ;
#149 = AXIS2_PLACEMENT_3D ( 'NONE', #84, #52, #371 ) ;
#150 = DIRECTION ( 'NONE',  ( -1.000000000000000000, 0.000000000000000000, 0.000000000000000000 ) ) ;
#151 = CC_DESIGN_SECURITY_CLASSIFICATION ( #77, ( #407 ) ) ;
#152 = DIRECTION ( 'NONE',  ( -1.000000000000000000, 0.000000000000000000, 0.000000000000000000 ) ) ;
#153 = CC_DESIGN_PERSON_AND_ORGANIZATION_ASSIGNMENT ( #21, #396, ( #199 ) ) ;
#154 = APPROVAL ( #375, 'UNSPECIFIED' ) ;
#155 = CARTESIAN_POINT ( 'NONE',  ( 9.747286640398695117E-16, 11.11159930683802699, 0.000000000000000000 ) ) ;
#156 = ORIENTED_EDGE ( 'NONE', *, *, #209, .F. ) ;
#157 = VERTEX_POINT ( 'NONE', #326 ) ;
#158 = FACE_OUTER_BOUND ( 'NONE', #66, .T. ) ;
#159 = EDGE_LOOP ( 'NONE', ( #33, #280 ) ) ;
#160 = EDGE_CURVE ( 'NONE', #290, #133, #182, .T. ) ;
#161 = DIRECTION ( 'NONE',  ( 1.000000000000000000, -4.596983092540343816E-18, 0.000000000000000000 ) ) ;
#162 = CARTESIAN_POINT ( 'NONE',  ( 0.000000000000000000, 0.000000000000000000, 0.000000000000000000 ) ) ;
#163 = ORIENTED_EDGE ( 'NONE', *, *, #276, .F. ) ;
#164 = PRODUCT_DEFINITION_SHAPE ( 'NONE', 'NONE',  #267 ) ;
#165 = AXIS2_PLACEMENT_3D ( 'NONE', #205, #46, #172 ) ;
#166 = AXIS2_PLACEMENT_3D ( 'NONE', #14, #356, #391 ) ;
#167 = CYLINDRICAL_SURFACE ( 'NONE', #211, 28.15000000000000213 ) ;
#168 = ORIENTED_EDGE ( 'NONE', *, *, #249, .F. ) ;
#169 = EDGE_LOOP ( 'NONE', ( #74, #43 ) ) ;
#170 = DIRECTION ( 'NONE',  ( -1.224646799147353207E-16, 5.629680630014033300E-34, 1.000000000000000000 ) ) ;
#171 = AXIS2_PLACEMENT_3D ( 'NONE', #194, #218, #313 ) ;
#172 = DIRECTION ( 'NONE',  ( 1.000000000000000000, 0.000000000000000000, 1.224646799147353454E-16 ) ) ;
#173 = CARTESIAN_POINT ( 'NONE',  ( 5.907696159086806760E-15, -26.23999999999999844, 0.000000000000000000 ) ) ;
#174 = APPROVAL_PERSON_ORGANIZATION ( #372, #300, #81 ) ;
#175 = CYLINDRICAL_SURFACE ( 'NONE', #331, 30.14999999999999858 ) ;
#176 = CARTESIAN_POINT ( 'NONE',  ( 9.485682098092811183E-16, 5.420811739435649201, 0.000000000000000000 ) ) ;
#177 = APPROVAL_ROLE ( '' ) ;
#178 = DIRECTION ( 'NONE',  ( -1.000000000000000000, 0.000000000000000000, 0.000000000000000000 ) ) ;
#179 = DIRECTION ( 'NONE',  ( 4.596983092540343816E-18, 1.000000000000000000, -0.000000000000000000 ) ) ;
#180 = CARTESIAN_POINT ( 'NONE',  ( 28.15000000000000213, -1.294050740550106935E-16, 3.447380739599799706E-15 ) ) ;
#181 = EDGE_CURVE ( 'NONE', #349, #133, #138, .T. ) ;
#182 = CIRCLE ( 'NONE', #268, 28.15000000000000213 ) ;
#183 = COORDINATED_UNIVERSAL_TIME_OFFSET ( 1, 0, .AHEAD. ) ;
#184 = TOROIDAL_SURFACE ( 'NONE', #127, 23.10500000000000043, 5.044999999999999041 ) ;
#185 = CIRCLE ( 'NONE', #9, 7.044999999999999041 ) ;
#186 = APPROVAL_DATE_TIME ( #29, #154 ) ;
#187 = FACE_OUTER_BOUND ( 'NONE', #104, .T. ) ;
#188 =( NAMED_UNIT ( * ) PLANE_ANGLE_UNIT ( ) SI_UNIT ( $, .RADIAN. ) );
#189 = PERSON_AND_ORGANIZATION ( #136, #111 ) ;
#190 = CIRCLE ( 'NONE', #305, 27.25794616660288128 ) ;
#191 = CARTESIAN_POINT ( 'NONE',  ( 9.236488298952508525E-16, 0.000000000000000000, 0.000000000000000000 ) ) ;
#192 = EDGE_LOOP ( 'NONE', ( #316, #226, #168 ) ) ;
#193 = EDGE_CURVE ( 'NONE', #264, #261, #333, .T. ) ;
#194 = CARTESIAN_POINT ( 'NONE',  ( 0.000000000000000000, 5.420811739435864141, 0.000000000000000000 ) ) ;
#195 = ORIENTED_EDGE ( 'NONE', *, *, #291, .F. ) ;
#196 = MANIFOLD_SOLID_BREP ( 'Wandung1', #347 ) ;
#197 = EDGE_CURVE ( 'NONE', #105, #31, #283, .T. ) ;
#198 = VERTEX_POINT ( 'NONE', #108 ) ;
#199 = PRODUCT ( '3D_R175_DN60.3x2_17336246', '3D_R175_DN60.3x2_17336246', '', ( #141 ) ) ;
#200 = AXIS2_PLACEMENT_3D ( 'NONE', #272, #329, #269 ) ;
#201 = CARTESIAN_POINT ( 'NONE',  ( -7.076607387093012613E-31, 5.420811739435710486, 0.000000000000000000 ) ) ;
#202 = CARTESIAN_POINT ( 'NONE',  ( 6.071974156980510223E-15, 9.496045703601053489, 0.000000000000000000 ) ) ;
#203 = ORIENTED_EDGE ( 'NONE', *, *, #263, .T. ) ;
#204 = CARTESIAN_POINT ( 'NONE',  ( 5.907696159086806760E-15, -26.23999999999999844, 0.000000000000000000 ) ) ;
#205 = CARTESIAN_POINT ( 'NONE',  ( 23.10500000000000043, 5.420811739435864141, 2.829546429429959495E-15 ) ) ;
#206 = VECTOR ( 'NONE', #65, 1000.000000000000000 ) ;
#207 = CARTESIAN_POINT ( 'NONE',  ( 1.387778780781445676E-14, 2817.965330118411202, 0.000000000000000000 ) ) ;
#208 = CC_DESIGN_APPROVAL ( #300, ( #407 ) ) ;
#209 = EDGE_CURVE ( 'NONE', #390, #247, #339, .T. ) ;
#210 = DIRECTION ( 'NONE',  ( 4.596983092540343816E-18, 1.000000000000000000, -0.000000000000000000 ) ) ;
#211 = AXIS2_PLACEMENT_3D ( 'NONE', #288, #229, #388 ) ;
#212 = CARTESIAN_POINT ( 'NONE',  ( 30.14999999999999858, -1.385990402400913442E-16, 3.692310099429270397E-15 ) ) ;
#213 = APPROVAL_ROLE ( '' ) ;
#214 = PRODUCT_RELATED_PRODUCT_CATEGORY ( 'detail', '', ( #199 ) ) ;
#215 = DIRECTION ( 'NONE',  ( -4.596983092540343816E-18, -1.000000000000000000, 0.000000000000000000 ) ) ;
#216 = PERSON_AND_ORGANIZATION_ROLE ( 'creator' ) ;
#217 = AXIS2_PLACEMENT_3D ( 'NONE', #79, #179, #299 ) ;
#218 = DIRECTION ( 'NONE',  ( 4.596983092540343816E-18, 1.000000000000000000, -0.000000000000000000 ) ) ;
#219 = FACE_OUTER_BOUND ( 'NONE', #318, .T. ) ;
#220 = EDGE_CURVE ( 'NONE', #264, #105, #41, .T. ) ;
#221 = DATE_TIME_ROLE ( 'classification_date' ) ;
#222 = VECTOR ( 'NONE', #279, 1000.000000000000000 ) ;
#223 = DIRECTION ( 'NONE',  ( -1.000000000000000000, 0.000000000000000000, 0.000000000000000000 ) ) ;
#224 = EDGE_LOOP ( 'NONE', ( #253, #284, #323, #137 ) ) ;
#225 = CARTESIAN_POINT ( 'NONE',  ( 23.10500000000000043, 5.420811739435864141, 2.829546429429959495E-15 ) ) ;
#226 = ORIENTED_EDGE ( 'NONE', *, *, #236, .T. ) ;
#227 = ORIENTED_EDGE ( 'NONE', *, *, #303, .F. ) ;
#228 = EDGE_LOOP ( 'NONE', ( #195, #352, #71, #32 ) ) ;
#229 = DIRECTION ( 'NONE',  ( 4.596983092540343816E-18, 1.000000000000000000, -0.000000000000000000 ) ) ;
#230 = DIRECTION ( 'NONE',  ( 4.596983092540343816E-18, 1.000000000000000000, -0.000000000000000000 ) ) ;
#231 = CIRCLE ( 'NONE', #217, 30.14999999999999858 ) ;
#232 = ORIENTED_EDGE ( 'NONE', *, *, #197, .F. ) ;
#233 = DIRECTION ( 'NONE',  ( 4.596983092540343816E-18, 1.000000000000000000, -0.000000000000000000 ) ) ;
#234 = APPLICATION_CONTEXT ( 'configuration controlled 3d designs of mechanical parts and assemblies' ) ;
#235 = ORIENTED_EDGE ( 'NONE', *, *, #236, .F. ) ;
#236 = EDGE_CURVE ( 'NONE', #315, #198, #397, .T. ) ;
#237 = ORIENTED_EDGE ( 'NONE', *, *, #2, .F. ) ;
#238 =( GEOMETRIC_REPRESENTATION_CONTEXT ( 3 ) GLOBAL_UNCERTAINTY_ASSIGNED_CONTEXT ( ( #271 ) ) GLOBAL_UNIT_ASSIGNED_CONTEXT ( ( #307, #188, #30 ) ) REPRESENTATION_CONTEXT ( 'NONE', 'WORKASPACE' ) );
#239 = ADVANCED_FACE ( 'NONE', ( #135, #404 ), #82, .T. ) ;
#240 = APPROVAL_STATUS ( 'not_yet_approved' ) ;
#241 = SPHERICAL_SURFACE ( 'NONE', #70, 46.24000000000000199 ) ;
#242 = AXIS2_PLACEMENT_3D ( 'NONE', #128, #314, #348 ) ;
#243 = CC_DESIGN_PERSON_AND_ORGANIZATION_ASSIGNMENT ( #189, #340, ( #407 ) ) ;
#244 = CARTESIAN_POINT ( 'NONE',  ( 3.402147971386846900E-15, 18.00000000000000355, 0.000000000000000000 ) ) ;
#245 = DIRECTION ( 'NONE',  ( -1.000000000000000000, 4.596983092540343046E-18, 0.000000000000000000 ) ) ;
#246 = ORIENTED_EDGE ( 'NONE', *, *, #86, .T. ) ;
#247 = VERTEX_POINT ( 'NONE', #244 ) ;
#248 = AXIS2_PLACEMENT_3D ( 'NONE', #204, #367, #12 ) ;
#249 = EDGE_CURVE ( 'NONE', #157, #198, #377, .T. ) ;
#250 = ORIENTED_EDGE ( 'NONE', *, *, #303, .T. ) ;
#251 = DIRECTION ( 'NONE',  ( 4.596983092540343816E-18, 1.000000000000000000, -0.000000000000000000 ) ) ;
#252 = VERTEX_POINT ( 'NONE', #180 ) ;
#253 = ORIENTED_EDGE ( 'NONE', *, *, #263, .F. ) ;
#254 = CIRCLE ( 'NONE', #45, 44.24000000000000199 ) ;
#255 = CIRCLE ( 'NONE', #365, 28.15000000000000213 ) ;
#256 = DIRECTION ( 'NONE',  ( 0.000000000000000000, 0.000000000000000000, 1.000000000000000000 ) ) ;
#257 = LOCAL_TIME ( 12, 10, 35.00000000000000000, #143 ) ;
#258 = ORIENTED_EDGE ( 'NONE', *, *, #276, .T. ) ;
#259 = DIRECTION ( 'NONE',  ( -1.000000000000000000, 0.000000000000000000, 0.000000000000000000 ) ) ;
#260 = DIRECTION ( 'NONE',  ( -1.000000000000000000, 4.596983092540343046E-18, 0.000000000000000000 ) ) ;
#261 = VERTEX_POINT ( 'NONE', #212 ) ;
#262 = CARTESIAN_POINT ( 'NONE',  ( -28.15000000000000213, 5.420811739435710486, 0.000000000000000000 ) ) ;
#263 = EDGE_CURVE ( 'NONE', #261, #31, #398, .T. ) ;
#264 = VERTEX_POINT ( 'NONE', #374 ) ;
#265 = CARTESIAN_POINT ( 'NONE',  ( 6.071974156980510223E-15, 9.496045703601053489, 0.000000000000000000 ) ) ;
#266 = DIRECTION ( 'NONE',  ( -1.000000000000000000, 0.000000000000000000, 0.000000000000000000 ) ) ;
#267 = PRODUCT_DEFINITION ( 'UNKNOWN', '', #407, #56 ) ;
#268 = AXIS2_PLACEMENT_3D ( 'NONE', #140, #230, #266 ) ;
#269 = DIRECTION ( 'NONE',  ( -1.000000000000000000, 0.000000000000000000, 0.000000000000000000 ) ) ;
#270 = DIRECTION ( 'NONE',  ( 1.000000000000000000, -4.596983092540343816E-18, 0.000000000000000000 ) ) ;
#271 = UNCERTAINTY_MEASURE_WITH_UNIT (LENGTH_MEASURE( 1.000000000000000082E-05 ), #307, 'distance_accuracy_value', 'NONE');
#272 = CARTESIAN_POINT ( 'NONE',  ( 1.387778780781445676E-14, 2817.965330118411202, 0.000000000000000000 ) ) ;
#273 = DIRECTION ( 'NONE',  ( 1.000000000000000000, 0.000000000000000000, 1.224646799147353207E-16 ) ) ;
#274 = DIRECTION ( 'NONE',  ( 0.000000000000000000, 0.000000000000000000, 1.000000000000000000 ) ) ;
#275 = CIRCLE ( 'NONE', #403, 30.14999999999999858 ) ;
#276 = EDGE_CURVE ( 'NONE', #341, #247, #254, .T. ) ;
#277 = FACE_OUTER_BOUND ( 'NONE', #192, .T. ) ;
#278 = LOCAL_TIME ( 12, 10, 35.00000000000000000, #183 ) ;
#279 = DIRECTION ( 'NONE',  ( 4.596983092540343816E-18, 1.000000000000000000, -0.000000000000000000 ) ) ;
#280 = ORIENTED_EDGE ( 'NONE', *, *, #334, .F. ) ;
#281 = EDGE_CURVE ( 'NONE', #133, #390, #322, .T. ) ;
#282 = EDGE_LOOP ( 'NONE', ( #235, #358, #7 ) ) ;
#283 = CIRCLE ( 'NONE', #109, 30.14999999999999858 ) ;
#284 = ORIENTED_EDGE ( 'NONE', *, *, #334, .T. ) ;
#285 = CC_DESIGN_DATE_AND_TIME_ASSIGNMENT ( #91, #221, ( #77 ) ) ;
#286 = DIRECTION ( 'NONE',  ( 4.596983092540343816E-18, 1.000000000000000000, -0.000000000000000000 ) ) ;
#287 = CIRCLE ( 'NONE', #342, 28.15000000000000213 ) ;
#288 = CARTESIAN_POINT ( 'NONE',  ( 1.387778780781445676E-14, 2817.965330118411202, 0.000000000000000000 ) ) ;
#289 = SPHERICAL_SURFACE ( 'NONE', #248, 44.24000000000000199 ) ;
#290 = VERTEX_POINT ( 'NONE', #80 ) ;
#291 = EDGE_CURVE ( 'NONE', #252, #290, #380, .T. ) ;
#292 = CIRCLE ( 'NONE', #27, 28.15000000000000213 ) ;
#293 = ORIENTED_EDGE ( 'NONE', *, *, #381, .F. ) ;
#294 = ORIENTED_EDGE ( 'NONE', *, *, #337, .F. ) ;
#295 = DIRECTION ( 'NONE',  ( -1.000000000000000000, 0.000000000000000000, 0.000000000000000000 ) ) ;
#296 = DIRECTION ( 'NONE',  ( 4.596983092540343816E-18, 1.000000000000000000, -0.000000000000000000 ) ) ;
#297 = APPLICATION_PROTOCOL_DEFINITION ( 'international standard', 'config_control_design', 1994, #234 ) ;
#298 = VECTOR ( 'NONE', #49, 1000.000000000000000 ) ;
#299 = DIRECTION ( 'NONE',  ( -1.000000000000000000, 0.000000000000000000, 0.000000000000000000 ) ) ;
#300 = APPROVAL ( #240, 'UNSPECIFIED' ) ;
#301 = DATE_AND_TIME ( #110, #306 ) ;
#302 = ADVANCED_BREP_SHAPE_REPRESENTATION ( '3D_R175_DN60.3x2_17336246', ( #196, #384 ), #238 ) ;
#303 = EDGE_CURVE ( 'NONE', #290, #341, #383, .T. ) ;
#304 = CYLINDRICAL_SURFACE ( 'NONE', #200, 28.15000000000000213 ) ;
#305 = AXIS2_PLACEMENT_3D ( 'NONE', #411, #312, #223 ) ;
#306 = LOCAL_TIME ( 12, 10, 35.00000000000000000, #20 ) ;
#307 =( LENGTH_UNIT ( ) NAMED_UNIT ( * ) SI_UNIT ( .MILLI., .METRE. ) );
#308 = ADVANCED_FACE ( 'NONE', ( #219 ), #184, .F. ) ;
#309 = FACE_OUTER_BOUND ( 'NONE', #224, .T. ) ;
#310 = EDGE_LOOP ( 'NONE', ( #227, #237, #125, #382 ) ) ;
#311 = PERSON_AND_ORGANIZATION ( #136, #111 ) ;
#312 = DIRECTION ( 'NONE',  ( 4.596983092540343816E-18, 1.000000000000000000, -0.000000000000000000 ) ) ;
#313 = DIRECTION ( 'NONE',  ( -1.000000000000000000, 4.596983092540343816E-18, 0.000000000000000000 ) ) ;
#314 = DIRECTION ( 'NONE',  ( 4.596983092540343816E-18, 1.000000000000000000, -0.000000000000000000 ) ) ;
#315 = VERTEX_POINT ( 'NONE', #95 ) ;
#316 = ORIENTED_EDGE ( 'NONE', *, *, #337, .T. ) ;
#317 = AXIS2_PLACEMENT_3D ( 'NONE', #359, #170, #16 ) ;
#318 = EDGE_LOOP ( 'NONE', ( #392, #250, #13, #123 ) ) ;
#319 = DIRECTION ( 'NONE',  ( 4.596983092540343816E-18, 1.000000000000000000, -0.000000000000000000 ) ) ;
#320 = EDGE_CURVE ( 'NONE', #349, #252, #292, .T. ) ;
#321 = ORIENTED_EDGE ( 'NONE', *, *, #10, .T. ) ;
#322 = CIRCLE ( 'NONE', #149, 5.045000000000000817 ) ;
#323 = ORIENTED_EDGE ( 'NONE', *, *, #220, .T. ) ;
#324 = DIRECTION ( 'NONE',  ( 1.000000000000000000, 0.000000000000000000, 0.000000000000000000 ) ) ;
#325 = DIRECTION ( 'NONE',  ( 4.596983092540343816E-18, 1.000000000000000000, -0.000000000000000000 ) ) ;
#326 = CARTESIAN_POINT ( 'NONE',  ( -27.25794616660288128, 11.11159930683802699, 0.000000000000000000 ) ) ;
#327 = CC_DESIGN_APPROVAL ( #154, ( #77 ) ) ;
#328 = PERSON_AND_ORGANIZATION ( #136, #111 ) ;
#329 = DIRECTION ( 'NONE',  ( 4.596983092540343816E-18, 1.000000000000000000, -0.000000000000000000 ) ) ;
#330 = PERSON_AND_ORGANIZATION ( #136, #111 ) ;
#331 = AXIS2_PLACEMENT_3D ( 'NONE', #207, #325, #295 ) ;
#332 = COORDINATED_UNIVERSAL_TIME_OFFSET ( 1, 0, .AHEAD. ) ;
#333 = CIRCLE ( 'NONE', #1, 30.14999999999999858 ) ;
#334 = EDGE_CURVE ( 'NONE', #261, #264, #275, .T. ) ;
#335 = APPROVAL_STATUS ( 'not_yet_approved' ) ;
#336 = CARTESIAN_POINT ( 'NONE',  ( 30.15000000000001279, 2817.965330118411202, 3.692310099429270397E-15 ) ) ;
#337 = EDGE_CURVE ( 'NONE', #157, #315, #190, .T. ) ;
#338 = DIRECTION ( 'NONE',  ( 4.596983092540343816E-18, 1.000000000000000000, -0.000000000000000000 ) ) ;
#339 = CIRCLE ( 'NONE', #166, 44.24000000000000199 ) ;
#340 = PERSON_AND_ORGANIZATION_ROLE ( 'design_supplier' ) ;
#341 = VERTEX_POINT ( 'NONE', #34 ) ;
#342 = AXIS2_PLACEMENT_3D ( 'NONE', #6, #286, #161 ) ;
#343 = DIRECTION ( 'NONE',  ( 1.000000000000000000, -4.596983092540343816E-18, 0.000000000000000000 ) ) ;
#344 = CARTESIAN_POINT ( 'NONE',  ( 9.236488298952508525E-16, 0.000000000000000000, 0.000000000000000000 ) ) ;
#345 = SHAPE_DEFINITION_REPRESENTATION ( #164, #302 ) ;
#346 = TOROIDAL_SURFACE ( 'NONE', #171, 23.10500000000000043, 7.044999999999999041 ) ;
#347 = CLOSED_SHELL ( 'NONE', ( #100, #308, #61, #126, #350, #50, #239, #354, #387, #115, #83, #73, #132 ) ) ;
#348 = DIRECTION ( 'NONE',  ( -1.000000000000000000, 0.000000000000000000, 0.000000000000000000 ) ) ;
#349 = VERTEX_POINT ( 'NONE', #88 ) ;
#350 = ADVANCED_FACE ( 'NONE', ( #158 ), #363, .T. ) ;
#351 = APPROVAL_PERSON_ORGANIZATION ( #328, #42, #177 ) ;
#352 = ORIENTED_EDGE ( 'NONE', *, *, #320, .F. ) ;
#353 = AXIS2_PLACEMENT_3D ( 'NONE', #265, #393, #259 ) ;
#354 = ADVANCED_FACE ( 'NONE', ( #309 ), #409, .T. ) ;
#355 = FACE_OUTER_BOUND ( 'NONE', #310, .T. ) ;
#356 = DIRECTION ( 'NONE',  ( -0.000000000000000000, 0.000000000000000000, -1.000000000000000000 ) ) ;
#357 = AXIS2_PLACEMENT_3D ( 'NONE', #144, #51, #178 ) ;
#358 = ORIENTED_EDGE ( 'NONE', *, *, #381, .T. ) ;
#359 = CARTESIAN_POINT ( 'NONE',  ( 5.907696159086806760E-15, -26.23999999999999844, 0.000000000000000000 ) ) ;
#360 = DIRECTION ( 'NONE',  ( 4.596983092540343816E-18, 1.000000000000000000, -0.000000000000000000 ) ) ;
#361 = DIRECTION ( 'NONE',  ( -1.000000000000000000, 0.000000000000000000, 0.000000000000000000 ) ) ;
#362 = CC_DESIGN_PERSON_AND_ORGANIZATION_ASSIGNMENT ( #145, #216, ( #407 ) ) ;
#363 = TOROIDAL_SURFACE ( 'NONE', #8, 23.10500000000000043, 7.044999999999999041 ) ;
#364 = ORIENTED_EDGE ( 'NONE', *, *, #10, .F. ) ;
#365 = AXIS2_PLACEMENT_3D ( 'NONE', #201, #360, #11 ) ;
#366 = APPLICATION_PROTOCOL_DEFINITION ( 'international standard', 'config_control_design', 1994, #389 ) ;
#367 = DIRECTION ( 'NONE',  ( 0.000000000000000000, 0.000000000000000000, 1.000000000000000000 ) ) ;
#368 = LOCAL_TIME ( 12, 10, 35.00000000000000000, #332 ) ;
#369 = APPROVAL_DATE_TIME ( #301, #42 ) ;
#370 = FACE_OUTER_BOUND ( 'NONE', #228, .T. ) ;
#371 = DIRECTION ( 'NONE',  ( -1.000000000000000000, 0.000000000000000000, 0.000000000000000000 ) ) ;
#372 = PERSON_AND_ORGANIZATION ( #136, #111 ) ;
#373 = SPHERICAL_SURFACE ( 'NONE', #55, 46.24000000000000199 ) ;
#374 = CARTESIAN_POINT ( 'NONE',  ( -30.14999999999999858, 1.385990402400913442E-16, 0.000000000000000000 ) ) ;
#375 = APPROVAL_STATUS ( 'not_yet_approved' ) ;
#376 = DIRECTION ( 'NONE',  ( 4.596983092540343816E-18, 1.000000000000000000, -0.000000000000000000 ) ) ;
#377 = CIRCLE ( 'NONE', #93, 46.24000000000000199 ) ;
#378 = ORIENTED_EDGE ( 'NONE', *, *, #209, .T. ) ;
#379 = EDGE_LOOP ( 'NONE', ( #163, #64, #378 ) ) ;
#380 = LINE ( 'NONE', #120, #206 ) ;
#381 = EDGE_CURVE ( 'NONE', #315, #157, #63, .T. ) ;
#382 = ORIENTED_EDGE ( 'NONE', *, *, #146, .T. ) ;
#383 = CIRCLE ( 'NONE', #75, 5.045000000000000817 ) ;
#384 = AXIS2_PLACEMENT_3D ( 'NONE', #162, #256, #324 ) ;
#385 = DIRECTION ( 'NONE',  ( -1.000000000000000000, 0.000000000000000000, 0.000000000000000000 ) ) ;
#386 = FACE_OUTER_BOUND ( 'NONE', #134, .T. ) ;
#387 = ADVANCED_FACE ( 'NONE', ( #187 ), #346, .T. ) ;
#388 = DIRECTION ( 'NONE',  ( -1.000000000000000000, 0.000000000000000000, 0.000000000000000000 ) ) ;
#389 = APPLICATION_CONTEXT ( 'configuration controlled 3d designs of mechanical parts and assemblies' ) ;
#390 = VERTEX_POINT ( 'NONE', #35 ) ;
#391 = DIRECTION ( 'NONE',  ( -1.000000000000000000, 0.000000000000000000, 0.000000000000000000 ) ) ;
#392 = ORIENTED_EDGE ( 'NONE', *, *, #160, .F. ) ;
#393 = DIRECTION ( 'NONE',  ( 4.596983092540343816E-18, 1.000000000000000000, -0.000000000000000000 ) ) ;
#394 = CARTESIAN_POINT ( 'NONE',  ( -28.14999999999998792, 2817.965330118411202, 0.000000000000000000 ) ) ;
#395 = DIRECTION ( 'NONE',  ( -1.000000000000000000, 0.000000000000000000, 0.000000000000000000 ) ) ;
#396 = PERSON_AND_ORGANIZATION_ROLE ( 'design_owner' ) ;
#397 = CIRCLE ( 'NONE', #317, 46.24000000000000199 ) ;
#398 = LINE ( 'NONE', #336, #222 ) ;
#399 = CALENDAR_DATE ( 2024, 18, 7 ) ;
#400 = EDGE_CURVE ( 'NONE', #252, #349, #287, .T. ) ;
#401 = FACE_OUTER_BOUND ( 'NONE', #15, .T. ) ;
#402 = DATE_AND_TIME ( #399, #257 ) ;
#403 = AXIS2_PLACEMENT_3D ( 'NONE', #191, #251, #245 ) ;
#404 = FACE_OUTER_BOUND ( 'NONE', #159, .T. ) ;
#405 = TOROIDAL_SURFACE ( 'NONE', #22, 23.10500000000000043, 5.044999999999999041 ) ;
#406 = CARTESIAN_POINT ( 'NONE',  ( -3.185687223130093252E-34, -6.929952012004567209E-17, 0.000000000000000000 ) ) ;
#407 = PRODUCT_DEFINITION_FORMATION_WITH_SPECIFIED_SOURCE ( 'ANY', '', #199, .NOT_KNOWN. ) ;
#408 = CARTESIAN_POINT ( 'NONE',  ( 5.907696159086806760E-15, -26.23999999999999844, 0.000000000000000000 ) ) ;
#409 = CYLINDRICAL_SURFACE ( 'NONE', #242, 30.14999999999999858 ) ;
#410 = CALENDAR_DATE ( 2024, 18, 7 ) ;
#411 = CARTESIAN_POINT ( 'NONE',  ( 9.747286640398695117E-16, 11.11159930683802699, 0.000000000000000000 ) ) ;
ENDSEC;
END-ISO-10303-21;
