ISO-10303-21;
HEADER;
FILE_DESCRIPTION (( 'STEP AP203' ),
    '1' );
FILE_NAME ('3D_R245_88.9_17386150.STEP',
    '2024-08-06T09:34:10',
    ( '' ),
    ( '' ),
    'SwSTEP 2.0',
    'SolidWorks 2024',
    '' );
FILE_SCHEMA (( 'CONFIG_CONTROL_DESIGN' ));
ENDSEC;

DATA;
#1 = ORIENTED_EDGE ( 'NONE', *, *, #235, .T. ) ;
#2 = CARTESIAN_POINT ( 'NONE',  ( 0.000000000000000000, 0.000000000000000000, -45.00000000000000711 ) ) ;
#3 = APPROVAL ( #171, 'UNSPECIFIED' ) ;
#4 = EDGE_CURVE ( 'NONE', #61, #215, #114, .T. ) ;
#5 = ORIENTED_EDGE ( 'NONE', *, *, #57, .T. ) ;
#6 = DIRECTION ( 'NONE',  ( -0.000000000000000000, -1.000000000000000000, -0.000000000000000000 ) ) ;
#7 = LINE ( 'NONE', #81, #85 ) ;
#8 = CARTESIAN_POINT ( 'NONE',  ( 0.000000000000000000, 0.000000000000000000, 0.000000000000000000 ) ) ;
#9 = CIRCLE ( 'NONE', #192, 45.00000000000000711 ) ;
#10 = ORIENTED_EDGE ( 'NONE', *, *, #4, .T. ) ;
#11 = PERSON_AND_ORGANIZATION_ROLE ( 'design_owner' ) ;
#12 = CYLINDRICAL_SURFACE ( 'NONE', #92, 45.00000000000000711 ) ;
#13 = FACE_BOUND ( 'NONE', #41, .T. ) ;
#14 = CLOSED_SHELL ( 'NONE', ( #54, #248, #170, #205, #100, #139 ) ) ;
#15 = DATE_TIME_ROLE ( 'classification_date' ) ;
#16 = EDGE_CURVE ( 'NONE', #116, #59, #245, .T. ) ;
#17 = APPLICATION_CONTEXT ( 'configuration controlled 3d designs of mechanical parts and assemblies' ) ;
#18 = VERTEX_POINT ( 'NONE', #29 ) ;
#19 = SECURITY_CLASSIFICATION ( '', '', #172 ) ;
#20 = CC_DESIGN_PERSON_AND_ORGANIZATION_ASSIGNMENT ( #222, #123, ( #156 ) ) ;
#21 = EDGE_LOOP ( 'NONE', ( #38, #36 ) ) ;
#22 = AXIS2_PLACEMENT_3D ( 'NONE', #8, #68, #72 ) ;
#23 = EDGE_LOOP ( 'NONE', ( #182, #154 ) ) ;
#24 = CARTESIAN_POINT ( 'NONE',  ( 5.510910596163090344E-15, 4.000000000000000000, 45.00000000000000711 ) ) ;
#25 = FACE_OUTER_BOUND ( 'NONE', #120, .T. ) ;
#26 = LINE ( 'NONE', #24, #176 ) ;
#27 = FACE_OUTER_BOUND ( 'NONE', #135, .T. ) ;
#28 = DIRECTION ( 'NONE',  ( 0.000000000000000000, 1.000000000000000000, 0.000000000000000000 ) ) ;
#29 = CARTESIAN_POINT ( 'NONE',  ( 0.000000000000000000, 4.000000000000000000, -45.00000000000000711 ) ) ;
#30 = CARTESIAN_POINT ( 'NONE',  ( 0.000000000000000000, 4.000000000000000000, 0.000000000000000000 ) ) ;
#31 = CARTESIAN_POINT ( 'NONE',  ( 0.000000000000000000, 4.000000000000000000, 0.000000000000000000 ) ) ;
#32 = CC_DESIGN_DATE_AND_TIME_ASSIGNMENT ( #151, #15, ( #19 ) ) ;
#33 = PERSON_AND_ORGANIZATION ( #77, #37 ) ;
#34 = COORDINATED_UNIVERSAL_TIME_OFFSET ( 1, 0, .AHEAD. ) ;
#35 = DATE_AND_TIME ( #129, #238 ) ;
#36 = ORIENTED_EDGE ( 'NONE', *, *, #93, .T. ) ;
#37 = ORGANIZATION ( 'UNSPECIFIED', 'UNSPECIFIED', '' ) ;
#38 = ORIENTED_EDGE ( 'NONE', *, *, #115, .T. ) ;
#39 = AXIS2_PLACEMENT_3D ( 'NONE', #166, #28, #241 ) ;
#40 = EDGE_CURVE ( 'NONE', #232, #61, #185, .T. ) ;
#41 = EDGE_LOOP ( 'NONE', ( #137, #178 ) ) ;
#42 = DIRECTION ( 'NONE',  ( 0.000000000000000000, 1.000000000000000000, 0.000000000000000000 ) ) ;
#43 = CARTESIAN_POINT ( 'NONE',  ( 0.000000000000000000, 0.000000000000000000, 0.000000000000000000 ) ) ;
#44 = AXIS2_PLACEMENT_3D ( 'NONE', #144, #42, #117 ) ;
#45 = CIRCLE ( 'NONE', #231, 45.00000000000000711 ) ;
#46 = DIRECTION ( 'NONE',  ( -0.000000000000000000, -1.000000000000000000, -0.000000000000000000 ) ) ;
#47 =( NAMED_UNIT ( * ) SI_UNIT ( $, .STERADIAN. ) SOLID_ANGLE_UNIT ( ) );
#48 = ORIENTED_EDGE ( 'NONE', *, *, #115, .F. ) ;
#49 = APPROVAL_STATUS ( 'not_yet_approved' ) ;
#50 = CARTESIAN_POINT ( 'NONE',  ( 0.000000000000000000, 4.000000000000000000, -95.00000000000001421 ) ) ;
#51 = DIRECTION ( 'NONE',  ( 0.000000000000000000, -0.000000000000000000, 1.000000000000000000 ) ) ;
#52 = PERSON_AND_ORGANIZATION ( #77, #37 ) ;
#53 = CC_DESIGN_PERSON_AND_ORGANIZATION_ASSIGNMENT ( #121, #11, ( #228 ) ) ;
#54 = ADVANCED_FACE ( 'NONE', ( #27 ), #12, .F. ) ;
#55 = DATE_AND_TIME ( #168, #214 ) ;
#56 = APPROVAL_STATUS ( 'not_yet_approved' ) ;
#57 = EDGE_CURVE ( 'NONE', #194, #215, #161, .T. ) ;
#58 = APPROVAL_ROLE ( '' ) ;
#59 = VERTEX_POINT ( 'NONE', #160 ) ;
#60 =( GEOMETRIC_REPRESENTATION_CONTEXT ( 3 ) GLOBAL_UNCERTAINTY_ASSIGNED_CONTEXT ( ( #211 ) ) GLOBAL_UNIT_ASSIGNED_CONTEXT ( ( #86, #82, #47 ) ) REPRESENTATION_CONTEXT ( 'NONE', 'WORKASPACE' ) );
#61 = VERTEX_POINT ( 'NONE', #102 ) ;
#62 = AXIS2_PLACEMENT_3D ( 'NONE', #147, #96, #140 ) ;
#63 = AXIS2_PLACEMENT_3D ( 'NONE', #30, #187, #204 ) ;
#64 = PRODUCT_RELATED_PRODUCT_CATEGORY ( 'detail', '', ( #228 ) ) ;
#65 = ORIENTED_EDGE ( 'NONE', *, *, #152, .F. ) ;
#66 = ORIENTED_EDGE ( 'NONE', *, *, #57, .F. ) ;
#67 = CARTESIAN_POINT ( 'NONE',  ( 1.163414459189985801E-14, 4.000000000000000000, 95.00000000000001421 ) ) ;
#68 = DIRECTION ( 'NONE',  ( 0.000000000000000000, 1.000000000000000000, 0.000000000000000000 ) ) ;
#69 = DIRECTION ( 'NONE',  ( -0.000000000000000000, -1.000000000000000000, -0.000000000000000000 ) ) ;
#70 = CARTESIAN_POINT ( 'NONE',  ( 0.000000000000000000, 0.000000000000000000, -95.00000000000001421 ) ) ;
#71 = DIRECTION ( 'NONE',  ( 0.000000000000000000, 1.000000000000000000, 0.000000000000000000 ) ) ;
#72 = DIRECTION ( 'NONE',  ( 0.000000000000000000, -0.000000000000000000, 1.000000000000000000 ) ) ;
#73 = CARTESIAN_POINT ( 'NONE',  ( 0.000000000000000000, 4.000000000000000000, 0.000000000000000000 ) ) ;
#74 = APPROVAL ( #49, 'UNSPECIFIED' ) ;
#75 = VECTOR ( 'NONE', #69, 1000.000000000000000 ) ;
#76 = PERSON_AND_ORGANIZATION ( #77, #37 ) ;
#77 = PERSON ( 'UNSPECIFIED', 'UNSPECIFIED', 'UNSPECIFIED', ('UNSPECIFIED'), ('UNSPECIFIED'), ('UNSPECIFIED') ) ;
#78 = CC_DESIGN_DATE_AND_TIME_ASSIGNMENT ( #55, #190, ( #156 ) ) ;
#79 = AXIS2_PLACEMENT_3D ( 'NONE', #242, #46, #155 ) ;
#80 = CIRCLE ( 'NONE', #227, 95.00000000000001421 ) ;
#81 = CARTESIAN_POINT ( 'NONE',  ( 0.000000000000000000, 4.000000000000000000, -45.00000000000000711 ) ) ;
#82 =( NAMED_UNIT ( * ) PLANE_ANGLE_UNIT ( ) SI_UNIT ( $, .RADIAN. ) );
#83 = DIRECTION ( 'NONE',  ( -0.000000000000000000, -1.000000000000000000, -0.000000000000000000 ) ) ;
#84 = DIRECTION ( 'NONE',  ( -0.000000000000000000, -1.000000000000000000, -0.000000000000000000 ) ) ;
#85 = VECTOR ( 'NONE', #84, 1000.000000000000000 ) ;
#86 =( LENGTH_UNIT ( ) NAMED_UNIT ( * ) SI_UNIT ( .MILLI., .METRE. ) );
#87 = CIRCLE ( 'NONE', #39, 95.00000000000001421 ) ;
#88 = CARTESIAN_POINT ( 'NONE',  ( 0.000000000000000000, 4.000000000000000000, 0.000000000000000000 ) ) ;
#89 = DIRECTION ( 'NONE',  ( 0.000000000000000000, 0.000000000000000000, 1.000000000000000000 ) ) ;
#90 = COORDINATED_UNIVERSAL_TIME_OFFSET ( 1, 0, .AHEAD. ) ;
#91 = AXIS2_PLACEMENT_3D ( 'NONE', #31, #198, #51 ) ;
#92 = AXIS2_PLACEMENT_3D ( 'NONE', #142, #195, #104 ) ;
#93 = EDGE_CURVE ( 'NONE', #232, #194, #80, .T. ) ;
#94 = ORIENTED_EDGE ( 'NONE', *, *, #145, .F. ) ;
#95 = CC_DESIGN_APPROVAL ( #74, ( #156 ) ) ;
#96 = DIRECTION ( 'NONE',  ( 0.000000000000000000, 1.000000000000000000, 0.000000000000000000 ) ) ;
#97 = AXIS2_PLACEMENT_3D ( 'NONE', #88, #71, #175 ) ;
#98 = ORIENTED_EDGE ( 'NONE', *, *, #132, .T. ) ;
#99 = APPLICATION_CONTEXT ( 'configuration controlled 3d designs of mechanical parts and assemblies' ) ;
#100 = ADVANCED_FACE ( 'NONE', ( #25 ), #180, .T. ) ;
#101 = CYLINDRICAL_SURFACE ( 'NONE', #134, 95.00000000000001421 ) ;
#102 = CARTESIAN_POINT ( 'NONE',  ( 1.163414459189985801E-14, 0.000000000000000000, 95.00000000000001421 ) ) ;
#103 = APPROVAL_ROLE ( '' ) ;
#104 = DIRECTION ( 'NONE',  ( 0.000000000000000000, 0.000000000000000000, -1.000000000000000000 ) ) ;
#105 = DIRECTION ( 'NONE',  ( 0.000000000000000000, 0.000000000000000000, -1.000000000000000000 ) ) ;
#106 = APPROVAL_PERSON_ORGANIZATION ( #112, #3, #153 ) ;
#107 = ORIENTED_EDGE ( 'NONE', *, *, #193, .T. ) ;
#108 = DATE_AND_TIME ( #189, #226 ) ;
#109 = AXIS2_PLACEMENT_3D ( 'NONE', #158, #217, #118 ) ;
#110 = CALENDAR_DATE ( 2024, 6, 8 ) ;
#111 = MANIFOLD_SOLID_BREP ( 'Aufsatz-Linear austragen1', #14 ) ;
#112 = PERSON_AND_ORGANIZATION ( #77, #37 ) ;
#113 = PERSON_AND_ORGANIZATION_ROLE ( 'creator' ) ;
#114 = CIRCLE ( 'NONE', #62, 95.00000000000001421 ) ;
#115 = EDGE_CURVE ( 'NONE', #194, #232, #218, .T. ) ;
#116 = VERTEX_POINT ( 'NONE', #2 ) ;
#117 = DIRECTION ( 'NONE',  ( 0.000000000000000000, 0.000000000000000000, 1.000000000000000000 ) ) ;
#118 = DIRECTION ( 'NONE',  ( 0.000000000000000000, 0.000000000000000000, -1.000000000000000000 ) ) ;
#119 = CC_DESIGN_SECURITY_CLASSIFICATION ( #19, ( #169 ) ) ;
#120 = EDGE_LOOP ( 'NONE', ( #234, #48, #5, #164 ) ) ;
#121 = PERSON_AND_ORGANIZATION ( #77, #37 ) ;
#122 = EDGE_LOOP ( 'NONE', ( #233, #133, #10, #66 ) ) ;
#123 = PERSON_AND_ORGANIZATION_ROLE ( 'creator' ) ;
#124 = CYLINDRICAL_SURFACE ( 'NONE', #109, 45.00000000000000711 ) ;
#125 = CARTESIAN_POINT ( 'NONE',  ( 0.000000000000000000, 4.000000000000000000, -95.00000000000001421 ) ) ;
#126 = COORDINATED_UNIVERSAL_TIME_OFFSET ( 1, 0, .AHEAD. ) ;
#127 = PRODUCT_DEFINITION_SHAPE ( 'NONE', 'NONE',  #156 ) ;
#128 = PERSON_AND_ORGANIZATION_ROLE ( 'design_supplier' ) ;
#129 = CALENDAR_DATE ( 2024, 6, 8 ) ;
#130 = CC_DESIGN_APPROVAL ( #249, ( #169 ) ) ;
#131 = APPROVAL_DATE_TIME ( #108, #3 ) ;
#132 = EDGE_CURVE ( 'NONE', #18, #116, #7, .T. ) ;
#133 = ORIENTED_EDGE ( 'NONE', *, *, #40, .T. ) ;
#134 = AXIS2_PLACEMENT_3D ( 'NONE', #220, #6, #105 ) ;
#135 = EDGE_LOOP ( 'NONE', ( #1, #107, #236, #201 ) ) ;
#136 = ORIENTED_EDGE ( 'NONE', *, *, #4, .F. ) ;
#137 = ORIENTED_EDGE ( 'NONE', *, *, #16, .T. ) ;
#138 = VERTEX_POINT ( 'NONE', #221 ) ;
#139 = ADVANCED_FACE ( 'NONE', ( #223 ), #124, .F. ) ;
#140 = DIRECTION ( 'NONE',  ( 0.000000000000000000, 0.000000000000000000, 1.000000000000000000 ) ) ;
#141 = FACE_OUTER_BOUND ( 'NONE', #21, .T. ) ;
#142 = CARTESIAN_POINT ( 'NONE',  ( 0.000000000000000000, 4.000000000000000000, 0.000000000000000000 ) ) ;
#143 = CARTESIAN_POINT ( 'NONE',  ( 1.163414459189985801E-14, 4.000000000000000000, 95.00000000000001421 ) ) ;
#144 = CARTESIAN_POINT ( 'NONE',  ( 0.000000000000000000, 0.000000000000000000, 0.000000000000000000 ) ) ;
#145 = EDGE_CURVE ( 'NONE', #59, #116, #9, .T. ) ;
#146 = FACE_OUTER_BOUND ( 'NONE', #122, .T. ) ;
#147 = CARTESIAN_POINT ( 'NONE',  ( 0.000000000000000000, 0.000000000000000000, 0.000000000000000000 ) ) ;
#148 = DIRECTION ( 'NONE',  ( 0.000000000000000000, 1.000000000000000000, 0.000000000000000000 ) ) ;
#149 = PERSON_AND_ORGANIZATION_ROLE ( 'classification_officer' ) ;
#150 = EDGE_CURVE ( 'NONE', #138, #18, #45, .T. ) ;
#151 = DATE_AND_TIME ( #110, #183 ) ;
#152 = EDGE_CURVE ( 'NONE', #215, #61, #87, .T. ) ;
#153 = APPROVAL_ROLE ( '' ) ;
#154 = ORIENTED_EDGE ( 'NONE', *, *, #150, .F. ) ;
#155 = DIRECTION ( 'NONE',  ( 0.000000000000000000, 0.000000000000000000, -1.000000000000000000 ) ) ;
#156 = PRODUCT_DEFINITION ( 'UNKNOWN', '', #169, #230 ) ;
#157 = CC_DESIGN_PERSON_AND_ORGANIZATION_ASSIGNMENT ( #33, #128, ( #169 ) ) ;
#158 = CARTESIAN_POINT ( 'NONE',  ( 0.000000000000000000, 4.000000000000000000, 0.000000000000000000 ) ) ;
#159 = DATE_AND_TIME ( #207, #240 ) ;
#160 = CARTESIAN_POINT ( 'NONE',  ( 5.510910596163090344E-15, 0.000000000000000000, 45.00000000000000711 ) ) ;
#161 = LINE ( 'NONE', #50, #75 ) ;
#162 = CC_DESIGN_APPROVAL ( #3, ( #19 ) ) ;
#163 = APPROVAL_DATE_TIME ( #159, #74 ) ;
#164 = ORIENTED_EDGE ( 'NONE', *, *, #152, .T. ) ;
#165 = MECHANICAL_CONTEXT ( 'NONE', #99, 'mechanical' ) ;
#166 = CARTESIAN_POINT ( 'NONE',  ( 0.000000000000000000, 0.000000000000000000, 0.000000000000000000 ) ) ;
#167 = PLANE ( 'NONE',  #22 ) ;
#168 = CALENDAR_DATE ( 2024, 6, 8 ) ;
#169 = PRODUCT_DEFINITION_FORMATION_WITH_SPECIFIED_SOURCE ( 'ANY', '', #228, .NOT_KNOWN. ) ;
#170 = ADVANCED_FACE ( 'NONE', ( #141, #224 ), #179, .T. ) ;
#171 = APPROVAL_STATUS ( 'not_yet_approved' ) ;
#172 = SECURITY_CLASSIFICATION_LEVEL ( 'unclassified' ) ;
#173 = CIRCLE ( 'NONE', #63, 45.00000000000000711 ) ;
#174 = EDGE_LOOP ( 'NONE', ( #213, #199, #98, #94 ) ) ;
#175 = DIRECTION ( 'NONE',  ( 0.000000000000000000, 0.000000000000000000, 1.000000000000000000 ) ) ;
#176 = VECTOR ( 'NONE', #181, 1000.000000000000000 ) ;
#177 = ADVANCED_BREP_SHAPE_REPRESENTATION ( '3D_R245_88.9_17386150', ( #111, #209 ), #60 ) ;
#178 = ORIENTED_EDGE ( 'NONE', *, *, #145, .T. ) ;
#179 = PLANE ( 'NONE',  #91 ) ;
#180 = CYLINDRICAL_SURFACE ( 'NONE', #79, 95.00000000000001421 ) ;
#181 = DIRECTION ( 'NONE',  ( -0.000000000000000000, -1.000000000000000000, -0.000000000000000000 ) ) ;
#182 = ORIENTED_EDGE ( 'NONE', *, *, #235, .F. ) ;
#183 = LOCAL_TIME ( 11, 34, 10.00000000000000000, #34 ) ;
#184 = DIRECTION ( 'NONE',  ( 1.000000000000000000, 0.000000000000000000, 0.000000000000000000 ) ) ;
#185 = LINE ( 'NONE', #67, #191 ) ;
#186 = APPLICATION_PROTOCOL_DEFINITION ( 'international standard', 'config_control_design', 1994, #99 ) ;
#187 = DIRECTION ( 'NONE',  ( 0.000000000000000000, 1.000000000000000000, 0.000000000000000000 ) ) ;
#188 = PERSON_AND_ORGANIZATION ( #77, #37 ) ;
#189 = CALENDAR_DATE ( 2024, 6, 8 ) ;
#190 = DATE_TIME_ROLE ( 'creation_date' ) ;
#191 = VECTOR ( 'NONE', #83, 1000.000000000000000 ) ;
#192 = AXIS2_PLACEMENT_3D ( 'NONE', #196, #148, #225 ) ;
#193 = EDGE_CURVE ( 'NONE', #138, #59, #26, .T. ) ;
#194 = VERTEX_POINT ( 'NONE', #125 ) ;
#195 = DIRECTION ( 'NONE',  ( -0.000000000000000000, -1.000000000000000000, -0.000000000000000000 ) ) ;
#196 = CARTESIAN_POINT ( 'NONE',  ( 0.000000000000000000, 0.000000000000000000, 0.000000000000000000 ) ) ;
#197 = APPROVAL_PERSON_ORGANIZATION ( #210, #249, #58 ) ;
#198 = DIRECTION ( 'NONE',  ( 0.000000000000000000, 1.000000000000000000, 0.000000000000000000 ) ) ;
#199 = ORIENTED_EDGE ( 'NONE', *, *, #150, .T. ) ;
#200 = APPLICATION_PROTOCOL_DEFINITION ( 'international standard', 'config_control_design', 1994, #17 ) ;
#201 = ORIENTED_EDGE ( 'NONE', *, *, #132, .F. ) ;
#202 = COORDINATED_UNIVERSAL_TIME_OFFSET ( 1, 0, .AHEAD. ) ;
#203 = DIRECTION ( 'NONE',  ( 0.000000000000000000, 1.000000000000000000, 0.000000000000000000 ) ) ;
#204 = DIRECTION ( 'NONE',  ( 0.000000000000000000, 0.000000000000000000, 1.000000000000000000 ) ) ;
#205 = ADVANCED_FACE ( 'NONE', ( #244, #13 ), #167, .F. ) ;
#206 = CC_DESIGN_PERSON_AND_ORGANIZATION_ASSIGNMENT ( #76, #113, ( #169 ) ) ;
#207 = CALENDAR_DATE ( 2024, 6, 8 ) ;
#208 = APPROVAL_DATE_TIME ( #35, #249 ) ;
#209 = AXIS2_PLACEMENT_3D ( 'NONE', #43, #237, #184 ) ;
#210 = PERSON_AND_ORGANIZATION ( #77, #37 ) ;
#211 = UNCERTAINTY_MEASURE_WITH_UNIT (LENGTH_MEASURE( 1.000000000000000082E-05 ), #86, 'distance_accuracy_value', 'NONE');
#212 = APPROVAL_PERSON_ORGANIZATION ( #52, #74, #103 ) ;
#213 = ORIENTED_EDGE ( 'NONE', *, *, #193, .F. ) ;
#214 = LOCAL_TIME ( 11, 34, 10.00000000000000000, #202 ) ;
#215 = VERTEX_POINT ( 'NONE', #70 ) ;
#216 = EDGE_LOOP ( 'NONE', ( #65, #136 ) ) ;
#217 = DIRECTION ( 'NONE',  ( -0.000000000000000000, -1.000000000000000000, -0.000000000000000000 ) ) ;
#218 = CIRCLE ( 'NONE', #97, 95.00000000000001421 ) ;
#219 = DIRECTION ( 'NONE',  ( 0.000000000000000000, 0.000000000000000000, 1.000000000000000000 ) ) ;
#220 = CARTESIAN_POINT ( 'NONE',  ( 0.000000000000000000, 4.000000000000000000, 0.000000000000000000 ) ) ;
#221 = CARTESIAN_POINT ( 'NONE',  ( 5.510910596163090344E-15, 4.000000000000000000, 45.00000000000000711 ) ) ;
#222 = PERSON_AND_ORGANIZATION ( #77, #37 ) ;
#223 = FACE_OUTER_BOUND ( 'NONE', #174, .T. ) ;
#224 = FACE_BOUND ( 'NONE', #23, .T. ) ;
#225 = DIRECTION ( 'NONE',  ( 0.000000000000000000, 0.000000000000000000, 1.000000000000000000 ) ) ;
#226 = LOCAL_TIME ( 11, 34, 10.00000000000000000, #90 ) ;
#227 = AXIS2_PLACEMENT_3D ( 'NONE', #239, #203, #219 ) ;
#228 = PRODUCT ( '3D_R245_88.9_17386150', '3D_R245_88.9_17386150', '', ( #165 ) ) ;
#229 = CC_DESIGN_PERSON_AND_ORGANIZATION_ASSIGNMENT ( #188, #149, ( #19 ) ) ;
#230 = DESIGN_CONTEXT ( 'detailed design', #17, 'design' ) ;
#231 = AXIS2_PLACEMENT_3D ( 'NONE', #73, #243, #89 ) ;
#232 = VERTEX_POINT ( 'NONE', #143 ) ;
#233 = ORIENTED_EDGE ( 'NONE', *, *, #93, .F. ) ;
#234 = ORIENTED_EDGE ( 'NONE', *, *, #40, .F. ) ;
#235 = EDGE_CURVE ( 'NONE', #18, #138, #173, .T. ) ;
#236 = ORIENTED_EDGE ( 'NONE', *, *, #16, .F. ) ;
#237 = DIRECTION ( 'NONE',  ( 0.000000000000000000, 0.000000000000000000, 1.000000000000000000 ) ) ;
#238 = LOCAL_TIME ( 11, 34, 10.00000000000000000, #247 ) ;
#239 = CARTESIAN_POINT ( 'NONE',  ( 0.000000000000000000, 4.000000000000000000, 0.000000000000000000 ) ) ;
#240 = LOCAL_TIME ( 11, 34, 10.00000000000000000, #126 ) ;
#241 = DIRECTION ( 'NONE',  ( 0.000000000000000000, 0.000000000000000000, 1.000000000000000000 ) ) ;
#242 = CARTESIAN_POINT ( 'NONE',  ( 0.000000000000000000, 4.000000000000000000, 0.000000000000000000 ) ) ;
#243 = DIRECTION ( 'NONE',  ( 0.000000000000000000, 1.000000000000000000, 0.000000000000000000 ) ) ;
#244 = FACE_OUTER_BOUND ( 'NONE', #216, .T. ) ;
#245 = CIRCLE ( 'NONE', #44, 45.00000000000000711 ) ;
#246 = SHAPE_DEFINITION_REPRESENTATION ( #127, #177 ) ;
#247 = COORDINATED_UNIVERSAL_TIME_OFFSET ( 1, 0, .AHEAD. ) ;
#248 = ADVANCED_FACE ( 'NONE', ( #146 ), #101, .T. ) ;
#249 = APPROVAL ( #56, 'UNSPECIFIED' ) ;
ENDSEC;
END-ISO-10303-21;
