ISO-10303-21;
HEADER;
/****************************************************************
 * Generated by software with PDElib inside                    *
 * PDElib Version v51a, created Wed 07/06/2011                  *
 * ITI Transcendata (http://www.transcendata.com/)              *
 ****************************************************************/
FILE_DESCRIPTION(('RE_48,3x2-21,3x1,6_L90_V10'),'2;1');
FILE_NAME('RE_48,3x2-21,3x1,6_L90_V10.stp','2013-11-02T16:31:07',('DOCKWEILER AG'),('DOCKWEILER AG'),'Autodesk Inventor 2012','Autodesk Inventor 2012','');
FILE_SCHEMA(('CONFIG_CONTROL_DESIGN'));
ENDSEC;
DATA;
#5=APPLICATION_CONTEXT('configuration controlled 3D designs of mechanical parts and assemblies');
#6=APPLICATION_PROTOCOL_DEFINITION('International Standard','ap203_configuration_controlled_3d_design_of_mechanical_parts_and_assemblies_mim_lf',2004,#5);
#7=PRODUCT_CONTEXT('',#5,'mechanical');
#8=PRODUCT('N0006_002_001_009','N0006_002_001_009',$,(#7));
#9=PRODUCT_RELATED_PRODUCT_CATEGORY('part',$,(#8));
#10=PRODUCT_DEFINITION_FORMATION('',$,#8);
#11=PRODUCT_DEFINITION_CONTEXT('part definition',#5,'design');
#12=PRODUCT_DEFINITION('',$,#10,#11);
#18=(NAMED_UNIT(*)PLANE_ANGLE_UNIT()SI_UNIT($,.RADIAN.));
#19=DIMENSIONAL_EXPONENTS(0.0,0.0,0.0,0.0,0.0,0.0,0.0);
#20=PLANE_ANGLE_MEASURE_WITH_UNIT(PLANE_ANGLE_MEASURE(0.0174532925),#18);
#24=(CONVERSION_BASED_UNIT('DEGREE',#20)NAMED_UNIT(#19)PLANE_ANGLE_UNIT());
#28=(NAMED_UNIT(*)SI_UNIT($,.STERADIAN.)SOLID_ANGLE_UNIT());
#32=(LENGTH_UNIT()NAMED_UNIT(*)SI_UNIT(.MILLI.,.METRE.));
#34=UNCERTAINTY_MEASURE_WITH_UNIT(LENGTH_MEASURE(0.01),#32,'DISTANCE_ACCURACY_VALUE','');
#36=(GEOMETRIC_REPRESENTATION_CONTEXT(3)GLOBAL_UNCERTAINTY_ASSIGNED_CONTEXT((#34))GLOBAL_UNIT_ASSIGNED_CONTEXT((#24,#28,#32))REPRESENTATION_CONTEXT('None','None'));
#37=AXIS2_PLACEMENT_3D('',#38,#39,#40);
#38=CARTESIAN_POINT('',(0.0,0.0,0.0));
#39=DIRECTION('',(0.0,0.0,1.0));
#40=DIRECTION('',(1.0,0.0,0.0));
#41=SHAPE_REPRESENTATION('',(#37),#36);
#42=PRODUCT_DEFINITION_SHAPE('','',#12);
#43=SHAPE_DEFINITION_REPRESENTATION(#42,#41);
#49=(NAMED_UNIT(*)PLANE_ANGLE_UNIT()SI_UNIT($,.RADIAN.));
#50=DIMENSIONAL_EXPONENTS(0.0,0.0,0.0,0.0,0.0,0.0,0.0);
#51=PLANE_ANGLE_MEASURE_WITH_UNIT(PLANE_ANGLE_MEASURE(0.0174532925),#49);
#55=(CONVERSION_BASED_UNIT('DEGREE',#51)NAMED_UNIT(#50)PLANE_ANGLE_UNIT());
#59=(NAMED_UNIT(*)SI_UNIT($,.STERADIAN.)SOLID_ANGLE_UNIT());
#63=(LENGTH_UNIT()NAMED_UNIT(*)SI_UNIT(.MILLI.,.METRE.));
#65=UNCERTAINTY_MEASURE_WITH_UNIT(LENGTH_MEASURE(0.000001),#63,'DISTANCE_ACCURACY_VALUE','');
#67=(GEOMETRIC_REPRESENTATION_CONTEXT(3)GLOBAL_UNCERTAINTY_ASSIGNED_CONTEXT((#65))GLOBAL_UNIT_ASSIGNED_CONTEXT((#55,#59,#63))REPRESENTATION_CONTEXT('','3D'));
#68=CARTESIAN_POINT('',(14.037148568667426,64.895758554937984,8.568623311452114));
#69=CARTESIAN_POINT('',(-9.630392E-015,4.824131521785017,23.39436484879511));
#70=CARTESIAN_POINT('',(22.149999999999995,63.000000000000036,8.568623311452116));
#71=CARTESIAN_POINT('',(22.149999999999924,-0.351736956429952,23.394364848795117));
#72=CARTESIAN_POINT('',(22.150000000000006,63.00000000000005,3.557607E-015));
#73=CARTESIAN_POINT('',(22.149999999999938,-0.351736956429955,9.136406E-015));
#74=CARTESIAN_POINT('',(22.150000000000009,63.000000000000064,-8.568623311452109));
#75=CARTESIAN_POINT('',(22.149999999999949,-0.351736956429956,-23.394364848795092));
#76=CARTESIAN_POINT('',(14.03714856866744,64.895758554938013,-8.568623311452114));
#77=CARTESIAN_POINT('',(9.192288E-015,4.824131521785014,-23.39436484879511));
#78=CARTESIAN_POINT('',(5.92429713733487,66.791517109875954,-8.568623311452116));
#79=CARTESIAN_POINT('',(-22.149999999999924,9.999999999999984,-23.394364848795117));
#80=CARTESIAN_POINT('',(5.924297137334861,66.79151710987594,-3.557607E-015));
#81=CARTESIAN_POINT('',(-22.149999999999938,9.999999999999986,-9.136406E-015));
#82=CARTESIAN_POINT('',(5.924297137334855,66.791517109875926,8.568623311452109));
#83=CARTESIAN_POINT('',(-22.149999999999949,9.999999999999988,23.394364848795092));
#84=CARTESIAN_POINT('',(14.037148568667426,64.895758554937984,8.568623311452114));
#85=CARTESIAN_POINT('',(-9.630392E-015,4.824131521785017,23.39436484879511));
#93=(BOUNDED_SURFACE()B_SPLINE_SURFACE(1,2,((#68,#70,#72,#74,#76,#78,#80,#82,#84),(#69,#71,#73,#75,#77,#79,#81,#83,#85)),.UNSPECIFIED.,.F.,.T.,.U.)B_SPLINE_SURFACE_WITH_KNOTS((2,2),(3,2,2,2,3),(-2.6264500441632,0.233673520461172),(0.0,34.845123164905381,69.690246329810762,104.53536949471614,139.38049265962152),.UNSPECIFIED.)GEOMETRIC_REPRESENTATION_ITEM()RATIONAL_B_SPLINE_SURFACE(((1.0,0.707106781186548,1.0,0.707106781186548,1.0,0.707106781186548,1.0,0.707106781186548,1.0),(1.0,0.707106781186548,1.0,0.707106781186548,1.0,0.707106781186548,1.0,0.707106781186548,1.0)))REPRESENTATION_ITEM('')SURFACE());
#94=CARTESIAN_POINT('',(22.149999999999999,10.0,-2.712593E-015));
#95=VERTEX_POINT('',#94);
#96=CARTESIAN_POINT('',(0.0,10.0,0.0));
#97=DIRECTION('',(0.0,1.0,0.0));
#98=DIRECTION('',(-1.0,0.0,0.0));
#99=AXIS2_PLACEMENT_3D('',#96,#97,#98);
#100=CIRCLE('',#99,22.149999999999999);
#101=EDGE_CURVE('',#95,#95,#100,.T.);
#102=ORIENTED_EDGE('',*,*,#101,.F.);
#103=EDGE_LOOP('',(#102));
#104=FACE_OUTER_BOUND('',#103,.T.);
#105=CARTESIAN_POINT('',(22.149999999999991,63.000000000000028,-1.108305E-015));
#106=VERTEX_POINT('',#105);
#107=CARTESIAN_POINT('',(13.099999999999987,63.000000000000014,0.0));
#108=DIRECTION('',(0.0,1.0,0.0));
#109=DIRECTION('',(-1.0,0.0,0.0));
#110=AXIS2_PLACEMENT_3D('',#107,#108,#109);
#111=CIRCLE('',#110,9.050000000000003);
#112=EDGE_CURVE('',#106,#106,#111,.T.);
#113=ORIENTED_EDGE('',*,*,#112,.T.);
#114=EDGE_LOOP('',(#113));
#115=FACE_BOUND('',#114,.T.);
#116=ADVANCED_FACE('',(#104,#115),#93,.F.);
#117=CARTESIAN_POINT('',(13.099999999999971,90.0,0.0));
#118=DIRECTION('',(5.482583E-016,-1.0,0.0));
#119=DIRECTION('',(-1.0,0.0,0.0));
#120=AXIS2_PLACEMENT_3D('',#117,#118,#119);
#121=CYLINDRICAL_SURFACE('',#120,9.050000000000003);
#122=ORIENTED_EDGE('',*,*,#112,.F.);
#123=EDGE_LOOP('',(#122));
#124=FACE_OUTER_BOUND('',#123,.T.);
#125=CARTESIAN_POINT('',(22.14999999999997,90.0,1.108305E-015));
#126=VERTEX_POINT('',#125);
#127=CARTESIAN_POINT('',(13.099999999999971,90.0,0.0));
#128=DIRECTION('',(0.0,-1.0,0.0));
#129=DIRECTION('',(-1.0,0.0,0.0));
#130=AXIS2_PLACEMENT_3D('',#127,#128,#129);
#131=CIRCLE('',#130,9.050000000000003);
#132=EDGE_CURVE('',#126,#126,#131,.T.);
#133=ORIENTED_EDGE('',*,*,#132,.F.);
#134=EDGE_LOOP('',(#133));
#135=FACE_BOUND('',#134,.T.);
#136=ADVANCED_FACE('',(#124,#135),#121,.F.);
#137=CARTESIAN_POINT('',(0.0,5.551115E-015,0.0));
#138=DIRECTION('',(0.0,1.0,0.0));
#139=DIRECTION('',(-1.0,0.0,0.0));
#140=AXIS2_PLACEMENT_3D('',#137,#138,#139);
#141=CYLINDRICAL_SURFACE('',#140,22.149999999999999);
#142=CARTESIAN_POINT('',(22.149999999999999,5.551115E-015,2.712593E-015));
#143=VERTEX_POINT('',#142);
#144=CARTESIAN_POINT('',(0.0,5.551115E-015,0.0));
#145=DIRECTION('',(0.0,1.0,0.0));
#146=DIRECTION('',(-1.0,0.0,0.0));
#147=AXIS2_PLACEMENT_3D('',#144,#145,#146);
#148=CIRCLE('',#147,22.149999999999999);
#149=EDGE_CURVE('',#143,#143,#148,.T.);
#150=ORIENTED_EDGE('',*,*,#149,.F.);
#151=EDGE_LOOP('',(#150));
#152=FACE_OUTER_BOUND('',#151,.T.);
#153=ORIENTED_EDGE('',*,*,#101,.T.);
#154=EDGE_LOOP('',(#153));
#155=FACE_BOUND('',#154,.T.);
#156=ADVANCED_FACE('',(#152,#155),#141,.F.);
#157=CARTESIAN_POINT('',(13.099999999999978,77.500000000000014,0.0));
#158=DIRECTION('',(-5.551115E-016,1.0,0.0));
#159=DIRECTION('',(-1.0,0.0,0.0));
#160=AXIS2_PLACEMENT_3D('',#157,#158,#159);
#161=CYLINDRICAL_SURFACE('',#160,10.6499999999998);
#162=CARTESIAN_POINT('',(2.450000000000166,90.0,0.0));
#163=VERTEX_POINT('',#162);
#164=CARTESIAN_POINT('',(13.099999999999971,90.0,0.0));
#165=DIRECTION('',(0.0,1.0,0.0));
#166=DIRECTION('',(-1.0,0.0,0.0));
#167=AXIS2_PLACEMENT_3D('',#164,#165,#166);
#168=CIRCLE('',#167,10.649999999999807);
#169=EDGE_CURVE('',#163,#163,#168,.T.);
#170=ORIENTED_EDGE('',*,*,#169,.F.);
#171=EDGE_LOOP('',(#170));
#172=FACE_OUTER_BOUND('',#171,.T.);
#173=CARTESIAN_POINT('',(2.450000000000192,65.0,0.0));
#174=VERTEX_POINT('',#173);
#175=CARTESIAN_POINT('',(13.099999999999985,65.0,0.0));
#176=DIRECTION('',(0.0,1.0,0.0));
#177=DIRECTION('',(-1.0,0.0,0.0));
#178=AXIS2_PLACEMENT_3D('',#175,#176,#177);
#179=CIRCLE('',#178,10.649999999999793);
#180=EDGE_CURVE('',#174,#174,#179,.T.);
#181=ORIENTED_EDGE('',*,*,#180,.T.);
#182=EDGE_LOOP('',(#181));
#183=FACE_BOUND('',#182,.T.);
#184=ADVANCED_FACE('',(#172,#183),#161,.T.);
#185=CARTESIAN_POINT('',(7.775000000000069,90.0,0.0));
#186=DIRECTION('',(0.0,1.0,0.0));
#187=DIRECTION('',(0.0,0.0,1.0));
#188=AXIS2_PLACEMENT_3D('',#185,#186,#187);
#189=PLANE('',#188);
#190=ORIENTED_EDGE('',*,*,#169,.T.);
#191=EDGE_LOOP('',(#190));
#192=FACE_OUTER_BOUND('',#191,.T.);
#193=ORIENTED_EDGE('',*,*,#132,.T.);
#194=EDGE_LOOP('',(#193));
#195=FACE_BOUND('',#194,.T.);
#196=ADVANCED_FACE('',(#192,#195),#189,.T.);
#197=CARTESIAN_POINT('',(13.099999999999996,47.500000000000014,0.0));
#198=DIRECTION('',(5.551115E-016,-1.0,0.0));
#199=DIRECTION('',(-1.0,0.0,0.0));
#200=AXIS2_PLACEMENT_3D('',#197,#198,#199);
#201=CONICAL_SURFACE('',#200,23.949999999999896,37.234833981574901);
#202=CARTESIAN_POINT('',(-24.149999999999999,29.999999999999996,0.0));
#203=VERTEX_POINT('',#202);
#204=CARTESIAN_POINT('',(-24.150000000000013,29.999999999999993,-2.775558E-016));
#205=CARTESIAN_POINT('',(-24.150000000000013,29.999999999999993,1.10041062178777));
#206=CARTESIAN_POINT('',(-24.073495464941747,30.035355480409137,2.2447503034196));
#207=CARTESIAN_POINT('',(-23.746874174857254,30.186837621465582,4.545113282322964));
#208=CARTESIAN_POINT('',(-23.496774841849906,30.302960529460439,5.701139300374182));
#209=CARTESIAN_POINT('',(-22.500829568638675,30.768165633355096,9.080244494128214));
#210=CARTESIAN_POINT('',(-21.49538830077546,31.240990563299516,11.212073421093489));
#211=CARTESIAN_POINT('',(-19.739302357259291,32.08443186868783,13.95918288841029));
#212=CARTESIAN_POINT('',(-19.043023445601797,32.421535024591762,14.89871718834349));
#213=CARTESIAN_POINT('',(-17.503571937393232,33.177040795918423,16.680332289303056));
#214=CARTESIAN_POINT('',(-16.660469586415481,33.595475545666773,17.522460159946));
#215=CARTESIAN_POINT('',(-13.986086408773204,34.944325087021106,19.828095185195224));
#216=CARTESIAN_POINT('',(-12.001435088259127,35.97497224242538,21.061316658330504));
#217=CARTESIAN_POINT('',(-8.213915116038026,38.01972423290637,22.804730298563584));
#218=CARTESIAN_POINT('',(-6.209050045550207,39.139338995839339,23.430149880473103));
#219=CARTESIAN_POINT('',(-2.123117763996069,41.535389907505412,24.145736654551794));
#220=CARTESIAN_POINT('',(-0.042287227463389,42.812167372338976,24.236112306934512));
#221=CARTESIAN_POINT('',(4.027283584955432,45.458488209397615,23.899215717834927));
#222=CARTESIAN_POINT('',(6.018954499007893,46.830475477442519,23.471764910678377));
#223=CARTESIAN_POINT('',(9.765652901928634,49.589113388182625,22.176194180592109));
#224=CARTESIAN_POINT('',(11.520442017637873,50.976122043589015,21.308147246872238));
#225=CARTESIAN_POINT('',(15.119624042254738,54.033979502118335,18.984175578389937));
#226=CARTESIAN_POINT('',(17.105695575899048,55.903463594328954,17.251678535020346));
#227=CARTESIAN_POINT('',(20.435712719364876,59.44256396174994,13.138001674054735));
#228=CARTESIAN_POINT('',(21.78371965574155,61.116712980413119,10.764014525141247));
#229=CARTESIAN_POINT('',(23.126372250671785,62.945543475430163,7.068606756868801));
#230=CARTESIAN_POINT('',(23.509699218435188,63.502252247201511,5.709710261892695));
#231=CARTESIAN_POINT('',(24.022490099527076,64.271111037072785,2.868225308009695));
#232=CARTESIAN_POINT('',(24.150000000000013,64.473684210526031,1.382702044064254));
#233=CARTESIAN_POINT('',(24.150000000000013,64.473684210526031,-1.382702044064251));
#234=CARTESIAN_POINT('',(24.022490099527069,64.271111037072771,-2.86822530800969));
#235=CARTESIAN_POINT('',(23.509699218435195,63.502252247201497,-5.709710261892687));
#236=CARTESIAN_POINT('',(23.126372250671796,62.945543475430185,-7.068606756868801));
#237=CARTESIAN_POINT('',(21.78371965574155,61.116712980413126,-10.764014525141247));
#238=CARTESIAN_POINT('',(20.435712719364872,59.442563961749954,-13.13800167405474));
#239=CARTESIAN_POINT('',(17.105695575899041,55.903463594328962,-17.251678535020353));
#240=CARTESIAN_POINT('',(15.119624042254745,54.033979502118335,-18.984175578389934));
#241=CARTESIAN_POINT('',(11.520442017637878,50.976122043589015,-21.308147246872238));
#242=CARTESIAN_POINT('',(9.765652901928634,49.589113388182625,-22.176194180592109));
#243=CARTESIAN_POINT('',(6.018954499007895,46.830475477442519,-23.471764910678377));
#244=CARTESIAN_POINT('',(4.027283584955434,45.458488209397615,-23.899215717834927));
#245=CARTESIAN_POINT('',(-0.04228722746339,42.812167372338976,-24.236112306934512));
#246=CARTESIAN_POINT('',(-2.123117763996075,41.535389907505412,-24.145736654551794));
#247=CARTESIAN_POINT('',(-6.20905004555021,39.139338995839331,-23.430149880473103));
#248=CARTESIAN_POINT('',(-8.213915116038033,38.01972423290637,-22.80473029856358));
#249=CARTESIAN_POINT('',(-12.001435088259136,35.974972242425373,-21.061316658330504));
#250=CARTESIAN_POINT('',(-13.986086408773204,34.944325087021106,-19.828095185195224));
#251=CARTESIAN_POINT('',(-16.660469586415477,33.595475545666773,-17.522460159946004));
#252=CARTESIAN_POINT('',(-17.503571937393229,33.177040795918415,-16.680332289303063));
#253=CARTESIAN_POINT('',(-19.043023445601797,32.421535024591755,-14.898717188343495));
#254=CARTESIAN_POINT('',(-19.739302357259287,32.084431868687815,-13.9591828884103));
#255=CARTESIAN_POINT('',(-21.49538830077546,31.240990563299501,-11.212073421093498));
#256=CARTESIAN_POINT('',(-22.500829568638675,30.768165633355093,-9.080244494128227));
#257=CARTESIAN_POINT('',(-23.496774841849906,30.302960529460428,-5.701139300374194));
#258=CARTESIAN_POINT('',(-23.746874174857247,30.186837621465585,-4.545113282322973));
#259=CARTESIAN_POINT('',(-24.073495464941743,30.035355480409144,-2.244750303419604));
#260=CARTESIAN_POINT('',(-24.150000000000013,29.999999999999993,-1.100410621787781));
#261=CARTESIAN_POINT('',(-24.150000000000013,29.999999999999993,-8.326673E-015));
#262=B_SPLINE_CURVE_WITH_KNOTS('',3,(#204,#205,#206,#207,#208,#209,#210,#211,#212,#213,#214,#215,#216,#217,#218,#219,#220,#221,#222,#223,#224,#225,#226,#227,#228,#229,#230,#231,#232,#233,#234,#235,#236,#237,#238,#239,#240,#241,#242,#243,#244,#245,#246,#247,#248,#249,#250,#251,#252,#253,#254,#255,#256,#257,#258,#259,#260,#261),.UNSPECIFIED.,.T.,.U.,(4,2,2,2,2,2,2,2,2,2,2,2,2,2,2,2,2,2,2,2,2,2,2,2,2,2,2,2,4),(0.0,0.330123186536331,0.660246373072662,1.320492746145324,1.670575891193588,2.020659036241852,2.720825326338381,3.413829105800857,4.106832885263334,4.79983666472581,5.492840444188286,6.378915605723545,7.264990767258803,7.679801380478079,8.094611993697354,8.50942260691663,8.924233220135905,9.810308381671163,10.696383543206423,11.389387322668899,12.082391102131375,12.775394881593851,13.468398661056328,14.168564951152856,14.518648096201119,14.868731241249384,15.528977614322045,15.859100800858377,16.189223987394708),.UNSPECIFIED.);
#263=EDGE_CURVE('',#203,#203,#262,.T.);
#264=ORIENTED_EDGE('',*,*,#263,.T.);
#265=EDGE_LOOP('',(#264));
#266=FACE_OUTER_BOUND('',#265,.T.);
#267=ORIENTED_EDGE('',*,*,#180,.F.);
#268=EDGE_LOOP('',(#267));
#269=FACE_BOUND('',#268,.T.);
#270=ADVANCED_FACE('',(#266,#269),#201,.T.);
#271=CARTESIAN_POINT('',(0.0,15.000000000000004,0.0));
#272=DIRECTION('',(0.0,-1.0,0.0));
#273=DIRECTION('',(1.0,0.0,0.0));
#274=AXIS2_PLACEMENT_3D('',#271,#272,#273);
#275=CYLINDRICAL_SURFACE('',#274,24.150000000000013);
#276=CARTESIAN_POINT('',(24.150000000000013,8.881784E-015,0.0));
#277=VERTEX_POINT('',#276);
#278=CARTESIAN_POINT('',(0.0,8.881784E-015,0.0));
#279=DIRECTION('',(0.0,-1.0,0.0));
#280=DIRECTION('',(1.0,0.0,0.0));
#281=AXIS2_PLACEMENT_3D('',#278,#279,#280);
#282=CIRCLE('',#281,24.150000000000013);
#283=EDGE_CURVE('',#277,#277,#282,.T.);
#284=ORIENTED_EDGE('',*,*,#283,.F.);
#285=EDGE_LOOP('',(#284));
#286=FACE_OUTER_BOUND('',#285,.T.);
#287=ORIENTED_EDGE('',*,*,#263,.F.);
#288=EDGE_LOOP('',(#287));
#289=FACE_BOUND('',#288,.T.);
#290=ADVANCED_FACE('',(#286,#289),#275,.T.);
#291=CARTESIAN_POINT('',(12.075000000000006,5.551115E-015,0.0));
#292=DIRECTION('',(0.0,-1.0,0.0));
#293=DIRECTION('',(0.0,0.0,-1.0));
#294=AXIS2_PLACEMENT_3D('',#291,#292,#293);
#295=PLANE('',#294);
#296=ORIENTED_EDGE('',*,*,#283,.T.);
#297=EDGE_LOOP('',(#296));
#298=FACE_OUTER_BOUND('',#297,.T.);
#299=ORIENTED_EDGE('',*,*,#149,.T.);
#300=EDGE_LOOP('',(#299));
#301=FACE_BOUND('',#300,.T.);
#302=ADVANCED_FACE('',(#298,#301),#295,.T.);
#303=CLOSED_SHELL('',(#116,#136,#156,#184,#196,#270,#290,#302));
#304=MANIFOLD_SOLID_BREP('Volumenk\S\vrper2',#303);
#305=COLOUR_RGB('Metall - Stahl',0.639216005802155,0.639216005802155,0.686275005340576);
#306=FILL_AREA_STYLE_COLOUR('Metall - Stahl',#305);
#307=FILL_AREA_STYLE('Metall - Stahl',(#306));
#308=SURFACE_STYLE_FILL_AREA(#307);
#309=SURFACE_SIDE_STYLE('Metall - Stahl',(#308));
#310=SURFACE_STYLE_USAGE(.BOTH.,#309);
#311=PRESENTATION_STYLE_ASSIGNMENT((#310));
#312=STYLED_ITEM('',(#311),#304);
#313=MECHANICAL_DESIGN_GEOMETRIC_PRESENTATION_REPRESENTATION('',(#312),#36);
#314=ADVANCED_BREP_SHAPE_REPRESENTATION('ABSR',(#304),#36);
#315=SHAPE_REPRESENTATION_RELATIONSHIP('SRR','None',#314,#41);
ENDSEC;
END-ISO-10303-21;
