ISO-10303-21;
HEADER;
FILE_DESCRIPTION (( 'STEP AP203' ),
    '1' );
FILE_NAME ('3D_R245_69_17386310.STEP',
    '2024-08-06T09:39:47',
    ( '' ),
    ( '' ),
    'SwSTEP 2.0',
    'SolidWorks 2024',
    '' );
FILE_SCHEMA (( 'CONFIG_CONTROL_DESIGN' ));
ENDSEC;

DATA;
#1 = DIRECTION ( 'NONE',  ( 0.000000000000000000, 0.000000000000000000, 1.000000000000000000 ) ) ;
#2 = CYLINDRICAL_SURFACE ( 'NONE', #137, 35.25000000000000000 ) ;
#3 = ORIENTED_EDGE ( 'NONE', *, *, #165, .T. ) ;
#4 = CARTESIAN_POINT ( 'NONE',  ( 0.000000000000000000, 4.000000000000000000, -85.24999999999998579 ) ) ;
#5 = CIRCLE ( 'NONE', #10, 35.25000000000000000 ) ;
#6 = CARTESIAN_POINT ( 'NONE',  ( 0.000000000000000000, 4.000000000000000000, 0.000000000000000000 ) ) ;
#7 = ADVANCED_FACE ( 'NONE', ( #38, #35 ), #40, .F. ) ;
#8 = DIRECTION ( 'NONE',  ( -0.000000000000000000, -1.000000000000000000, -0.000000000000000000 ) ) ;
#9 = DIRECTION ( 'NONE',  ( 1.000000000000000000, 0.000000000000000000, 0.000000000000000000 ) ) ;
#10 = AXIS2_PLACEMENT_3D ( 'NONE', #158, #98, #55 ) ;
#11 = CARTESIAN_POINT ( 'NONE',  ( 1.044011396273118400E-14, 4.000000000000000000, 85.24999999999998579 ) ) ;
#12 = APPLICATION_PROTOCOL_DEFINITION ( 'international standard', 'config_control_design', 1994, #139 ) ;
#13 = DATE_AND_TIME ( #128, #70 ) ;
#14 = EDGE_LOOP ( 'NONE', ( #151, #169, #101, #160 ) ) ;
#15 = CC_DESIGN_APPROVAL ( #242, ( #190 ) ) ;
#16 = CALENDAR_DATE ( 2024, 6, 8 ) ;
#17 = DATE_AND_TIME ( #16, #78 ) ;
#18 = VERTEX_POINT ( 'NONE', #79 ) ;
#19 = ORIENTED_EDGE ( 'NONE', *, *, #56, .F. ) ;
#20 = VERTEX_POINT ( 'NONE', #4 ) ;
#21 = CARTESIAN_POINT ( 'NONE',  ( 0.000000000000000000, 0.000000000000000000, 0.000000000000000000 ) ) ;
#22 = CIRCLE ( 'NONE', #51, 35.25000000000000000 ) ;
#23 = LINE ( 'NONE', #196, #188 ) ;
#24 = DIRECTION ( 'NONE',  ( 0.000000000000000000, 1.000000000000000000, 0.000000000000000000 ) ) ;
#25 = DIRECTION ( 'NONE',  ( 0.000000000000000000, 1.000000000000000000, 0.000000000000000000 ) ) ;
#26 = CARTESIAN_POINT ( 'NONE',  ( 0.000000000000000000, 0.000000000000000000, 0.000000000000000000 ) ) ;
#27 = SECURITY_CLASSIFICATION ( '', '', #110 ) ;
#28 = AXIS2_PLACEMENT_3D ( 'NONE', #84, #63, #210 ) ;
#29 = FACE_BOUND ( 'NONE', #247, .T. ) ;
#30 = DATE_TIME_ROLE ( 'creation_date' ) ;
#31 = APPROVAL_DATE_TIME ( #154, #141 ) ;
#32 = SHAPE_DEFINITION_REPRESENTATION ( #157, #47 ) ;
#33 = APPROVAL_ROLE ( '' ) ;
#34 = ORIENTED_EDGE ( 'NONE', *, *, #109, .T. ) ;
#35 = FACE_BOUND ( 'NONE', #102, .T. ) ;
#36 = ORIENTED_EDGE ( 'NONE', *, *, #216, .F. ) ;
#37 = PRODUCT ( '3D_R245_69_17386310', '3D_R245_69_17386310', '', ( #43 ) ) ;
#38 = FACE_OUTER_BOUND ( 'NONE', #100, .T. ) ;
#39 = AXIS2_PLACEMENT_3D ( 'NONE', #59, #136, #211 ) ;
#40 = PLANE ( 'NONE',  #226 ) ;
#41 = DIRECTION ( 'NONE',  ( -0.000000000000000000, -1.000000000000000000, -0.000000000000000000 ) ) ;
#42 = DIRECTION ( 'NONE',  ( -0.000000000000000000, -1.000000000000000000, -0.000000000000000000 ) ) ;
#43 = MECHANICAL_CONTEXT ( 'NONE', #150, 'mechanical' ) ;
#44 = PERSON_AND_ORGANIZATION ( #83, #187 ) ;
#45 = CC_DESIGN_SECURITY_CLASSIFICATION ( #27, ( #135 ) ) ;
#46 = APPROVAL_DATE_TIME ( #166, #242 ) ;
#47 = ADVANCED_BREP_SHAPE_REPRESENTATION ( '3D_R245_69_17386310', ( #199, #90 ), #195 ) ;
#48 = CIRCLE ( 'NONE', #28, 35.25000000000000000 ) ;
#49 = PERSON_AND_ORGANIZATION ( #83, #187 ) ;
#50 = ORIENTED_EDGE ( 'NONE', *, *, #249, .T. ) ;
#51 = AXIS2_PLACEMENT_3D ( 'NONE', #103, #240, #106 ) ;
#52 = PERSON_AND_ORGANIZATION ( #83, #187 ) ;
#53 = ADVANCED_FACE ( 'NONE', ( #179 ), #2, .F. ) ;
#54 = COORDINATED_UNIVERSAL_TIME_OFFSET ( 1, 0, .AHEAD. ) ;
#55 = DIRECTION ( 'NONE',  ( 0.000000000000000000, 0.000000000000000000, 1.000000000000000000 ) ) ;
#56 = EDGE_CURVE ( 'NONE', #18, #132, #159, .T. ) ;
#57 = DIRECTION ( 'NONE',  ( 0.000000000000000000, 1.000000000000000000, 0.000000000000000000 ) ) ;
#58 = LOCAL_TIME ( 11, 39, 47.00000000000000000, #54 ) ;
#59 = CARTESIAN_POINT ( 'NONE',  ( 0.000000000000000000, 4.000000000000000000, 0.000000000000000000 ) ) ;
#60 = ORIENTED_EDGE ( 'NONE', *, *, #97, .F. ) ;
#61 = CIRCLE ( 'NONE', #94, 35.25000000000000000 ) ;
#62 = CC_DESIGN_DATE_AND_TIME_ASSIGNMENT ( #17, #30, ( #190 ) ) ;
#63 = DIRECTION ( 'NONE',  ( 0.000000000000000000, 1.000000000000000000, 0.000000000000000000 ) ) ;
#64 = CARTESIAN_POINT ( 'NONE',  ( 0.000000000000000000, 4.000000000000000000, 0.000000000000000000 ) ) ;
#65 = DIRECTION ( 'NONE',  ( 0.000000000000000000, 0.000000000000000000, -1.000000000000000000 ) ) ;
#66 = EDGE_CURVE ( 'NONE', #20, #132, #177, .T. ) ;
#67 = CC_DESIGN_APPROVAL ( #141, ( #135 ) ) ;
#68 = PERSON_AND_ORGANIZATION ( #83, #187 ) ;
#69 = VERTEX_POINT ( 'NONE', #236 ) ;
#70 = LOCAL_TIME ( 11, 39, 47.00000000000000000, #186 ) ;
#71 = VECTOR ( 'NONE', #81, 1000.000000000000000 ) ;
#72 = COORDINATED_UNIVERSAL_TIME_OFFSET ( 1, 0, .AHEAD. ) ;
#73 = PERSON_AND_ORGANIZATION_ROLE ( 'classification_officer' ) ;
#74 = EDGE_LOOP ( 'NONE', ( #96, #194, #92, #50 ) ) ;
#75 = EDGE_CURVE ( 'NONE', #207, #69, #48, .T. ) ;
#76 = CARTESIAN_POINT ( 'NONE',  ( 0.000000000000000000, 0.000000000000000000, 0.000000000000000000 ) ) ;
#77 = ORIENTED_EDGE ( 'NONE', *, *, #124, .T. ) ;
#78 = LOCAL_TIME ( 11, 39, 47.00000000000000000, #72 ) ;
#79 = CARTESIAN_POINT ( 'NONE',  ( 1.044011396273118400E-14, 0.000000000000000000, 85.24999999999998579 ) ) ;
#80 = ADVANCED_FACE ( 'NONE', ( #140 ), #155, .F. ) ;
#81 = DIRECTION ( 'NONE',  ( -0.000000000000000000, -1.000000000000000000, -0.000000000000000000 ) ) ;
#82 = AXIS2_PLACEMENT_3D ( 'NONE', #21, #24, #99 ) ;
#83 = PERSON ( 'UNSPECIFIED', 'UNSPECIFIED', 'UNSPECIFIED', ('UNSPECIFIED'), ('UNSPECIFIED'), ('UNSPECIFIED') ) ;
#84 = CARTESIAN_POINT ( 'NONE',  ( 0.000000000000000000, 4.000000000000000000, 0.000000000000000000 ) ) ;
#85 = FACE_OUTER_BOUND ( 'NONE', #120, .T. ) ;
#86 = APPROVAL_STATUS ( 'not_yet_approved' ) ;
#87 = AXIS2_PLACEMENT_3D ( 'NONE', #64, #125, #183 ) ;
#88 = DIRECTION ( 'NONE',  ( 0.000000000000000000, 1.000000000000000000, 0.000000000000000000 ) ) ;
#89 = PLANE ( 'NONE',  #118 ) ;
#90 = AXIS2_PLACEMENT_3D ( 'NONE', #107, #91, #9 ) ;
#91 = DIRECTION ( 'NONE',  ( 0.000000000000000000, 0.000000000000000000, 1.000000000000000000 ) ) ;
#92 = ORIENTED_EDGE ( 'NONE', *, *, #66, .T. ) ;
#93 = UNCERTAINTY_MEASURE_WITH_UNIT (LENGTH_MEASURE( 1.000000000000000082E-05 ), #167, 'distance_accuracy_value', 'NONE');
#94 = AXIS2_PLACEMENT_3D ( 'NONE', #233, #25, #1 ) ;
#95 = ORIENTED_EDGE ( 'NONE', *, *, #75, .F. ) ;
#96 = ORIENTED_EDGE ( 'NONE', *, *, #202, .F. ) ;
#97 = EDGE_CURVE ( 'NONE', #69, #207, #61, .T. ) ;
#98 = DIRECTION ( 'NONE',  ( 0.000000000000000000, 1.000000000000000000, 0.000000000000000000 ) ) ;
#99 = DIRECTION ( 'NONE',  ( 0.000000000000000000, 0.000000000000000000, 1.000000000000000000 ) ) ;
#100 = EDGE_LOOP ( 'NONE', ( #214, #19 ) ) ;
#101 = ORIENTED_EDGE ( 'NONE', *, *, #56, .T. ) ;
#102 = EDGE_LOOP ( 'NONE', ( #115, #77 ) ) ;
#103 = CARTESIAN_POINT ( 'NONE',  ( 0.000000000000000000, 0.000000000000000000, 0.000000000000000000 ) ) ;
#104 = CC_DESIGN_DATE_AND_TIME_ASSIGNMENT ( #246, #205, ( #27 ) ) ;
#105 = CARTESIAN_POINT ( 'NONE',  ( 0.000000000000000000, 4.000000000000000000, -35.25000000000000000 ) ) ;
#106 = DIRECTION ( 'NONE',  ( 0.000000000000000000, 0.000000000000000000, 1.000000000000000000 ) ) ;
#107 = CARTESIAN_POINT ( 'NONE',  ( 0.000000000000000000, 0.000000000000000000, 0.000000000000000000 ) ) ;
#108 = PERSON_AND_ORGANIZATION_ROLE ( 'design_supplier' ) ;
#109 = EDGE_CURVE ( 'NONE', #207, #244, #23, .T. ) ;
#110 = SECURITY_CLASSIFICATION_LEVEL ( 'unclassified' ) ;
#111 = APPROVAL_ROLE ( '' ) ;
#112 = LOCAL_TIME ( 11, 39, 47.00000000000000000, #130 ) ;
#113 = CLOSED_SHELL ( 'NONE', ( #80, #208, #238, #7, #146, #53 ) ) ;
#114 = PERSON_AND_ORGANIZATION_ROLE ( 'creator' ) ;
#115 = ORIENTED_EDGE ( 'NONE', *, *, #216, .T. ) ;
#116 = ORIENTED_EDGE ( 'NONE', *, *, #223, .T. ) ;
#117 = DIRECTION ( 'NONE',  ( 0.000000000000000000, 0.000000000000000000, 1.000000000000000000 ) ) ;
#118 = AXIS2_PLACEMENT_3D ( 'NONE', #147, #88, #181 ) ;
#119 = AXIS2_PLACEMENT_3D ( 'NONE', #6, #41, #156 ) ;
#120 = EDGE_LOOP ( 'NONE', ( #116, #152 ) ) ;
#121 = DIRECTION ( 'NONE',  ( 0.000000000000000000, 0.000000000000000000, -1.000000000000000000 ) ) ;
#122 = CARTESIAN_POINT ( 'NONE',  ( 0.000000000000000000, 4.000000000000000000, 0.000000000000000000 ) ) ;
#123 = LINE ( 'NONE', #237, #153 ) ;
#124 = EDGE_CURVE ( 'NONE', #138, #244, #5, .T. ) ;
#125 = DIRECTION ( 'NONE',  ( 0.000000000000000000, 1.000000000000000000, 0.000000000000000000 ) ) ;
#126 = CALENDAR_DATE ( 2024, 6, 8 ) ;
#127 = CARTESIAN_POINT ( 'NONE',  ( 0.000000000000000000, 0.000000000000000000, -35.25000000000000000 ) ) ;
#128 = CALENDAR_DATE ( 2024, 6, 8 ) ;
#129 = AXIS2_PLACEMENT_3D ( 'NONE', #219, #8, #65 ) ;
#130 = COORDINATED_UNIVERSAL_TIME_OFFSET ( 1, 0, .AHEAD. ) ;
#131 = EDGE_CURVE ( 'NONE', #224, #20, #212, .T. ) ;
#132 = VERTEX_POINT ( 'NONE', #234 ) ;
#133 = DIRECTION ( 'NONE',  ( -0.000000000000000000, -1.000000000000000000, -0.000000000000000000 ) ) ;
#134 = ORIENTED_EDGE ( 'NONE', *, *, #97, .T. ) ;
#135 = PRODUCT_DEFINITION_FORMATION_WITH_SPECIFIED_SOURCE ( 'ANY', '', #37, .NOT_KNOWN. ) ;
#136 = DIRECTION ( 'NONE',  ( -0.000000000000000000, -1.000000000000000000, -0.000000000000000000 ) ) ;
#137 = AXIS2_PLACEMENT_3D ( 'NONE', #122, #133, #121 ) ;
#138 = VERTEX_POINT ( 'NONE', #191 ) ;
#139 = APPLICATION_CONTEXT ( 'configuration controlled 3d designs of mechanical parts and assemblies' ) ;
#140 = FACE_OUTER_BOUND ( 'NONE', #248, .T. ) ;
#141 = APPROVAL ( #222, 'UNSPECIFIED' ) ;
#142 = CYLINDRICAL_SURFACE ( 'NONE', #129, 85.24999999999998579 ) ;
#143 = AXIS2_PLACEMENT_3D ( 'NONE', #26, #215, #163 ) ;
#144 = CIRCLE ( 'NONE', #143, 85.24999999999998579 ) ;
#145 = APPROVAL_ROLE ( '' ) ;
#146 = ADVANCED_FACE ( 'NONE', ( #175 ), #174, .T. ) ;
#147 = CARTESIAN_POINT ( 'NONE',  ( 0.000000000000000000, 4.000000000000000000, 0.000000000000000000 ) ) ;
#148 = APPLICATION_PROTOCOL_DEFINITION ( 'international standard', 'config_control_design', 1994, #150 ) ;
#149 = CC_DESIGN_PERSON_AND_ORGANIZATION_ASSIGNMENT ( #170, #114, ( #135 ) ) ;
#150 = APPLICATION_CONTEXT ( 'configuration controlled 3d designs of mechanical parts and assemblies' ) ;
#151 = ORIENTED_EDGE ( 'NONE', *, *, #131, .F. ) ;
#152 = ORIENTED_EDGE ( 'NONE', *, *, #131, .T. ) ;
#153 = VECTOR ( 'NONE', #42, 1000.000000000000000 ) ;
#154 = DATE_AND_TIME ( #203, #112 ) ;
#155 = CYLINDRICAL_SURFACE ( 'NONE', #119, 35.25000000000000000 ) ;
#156 = DIRECTION ( 'NONE',  ( 0.000000000000000000, 0.000000000000000000, -1.000000000000000000 ) ) ;
#157 = PRODUCT_DEFINITION_SHAPE ( 'NONE', 'NONE',  #190 ) ;
#158 = CARTESIAN_POINT ( 'NONE',  ( 0.000000000000000000, 0.000000000000000000, 0.000000000000000000 ) ) ;
#159 = CIRCLE ( 'NONE', #82, 85.24999999999998579 ) ;
#160 = ORIENTED_EDGE ( 'NONE', *, *, #66, .F. ) ;
#161 = CC_DESIGN_PERSON_AND_ORGANIZATION_ASSIGNMENT ( #225, #73, ( #27 ) ) ;
#162 = DIRECTION ( 'NONE',  ( -0.000000000000000000, -1.000000000000000000, -0.000000000000000000 ) ) ;
#163 = DIRECTION ( 'NONE',  ( 0.000000000000000000, 0.000000000000000000, 1.000000000000000000 ) ) ;
#164 =( NAMED_UNIT ( * ) PLANE_ANGLE_UNIT ( ) SI_UNIT ( $, .RADIAN. ) );
#165 = EDGE_CURVE ( 'NONE', #69, #138, #123, .T. ) ;
#166 = DATE_AND_TIME ( #126, #171 ) ;
#167 =( LENGTH_UNIT ( ) NAMED_UNIT ( * ) SI_UNIT ( .MILLI., .METRE. ) );
#168 = CC_DESIGN_PERSON_AND_ORGANIZATION_ASSIGNMENT ( #44, #184, ( #37 ) ) ;
#169 = ORIENTED_EDGE ( 'NONE', *, *, #202, .T. ) ;
#170 = PERSON_AND_ORGANIZATION ( #83, #187 ) ;
#171 = LOCAL_TIME ( 11, 39, 47.00000000000000000, #217 ) ;
#172 = ORIENTED_EDGE ( 'NONE', *, *, #109, .F. ) ;
#173 = CC_DESIGN_PERSON_AND_ORGANIZATION_ASSIGNMENT ( #241, #201, ( #190 ) ) ;
#174 = CYLINDRICAL_SURFACE ( 'NONE', #39, 85.24999999999998579 ) ;
#175 = FACE_OUTER_BOUND ( 'NONE', #74, .T. ) ;
#176 = CARTESIAN_POINT ( 'NONE',  ( 0.000000000000000000, 4.000000000000000000, -85.24999999999998579 ) ) ;
#177 = LINE ( 'NONE', #176, #71 ) ;
#178 = APPROVAL ( #243, 'UNSPECIFIED' ) ;
#179 = FACE_OUTER_BOUND ( 'NONE', #185, .T. ) ;
#180 =( NAMED_UNIT ( * ) SI_UNIT ( $, .STERADIAN. ) SOLID_ANGLE_UNIT ( ) );
#181 = DIRECTION ( 'NONE',  ( 0.000000000000000000, -0.000000000000000000, 1.000000000000000000 ) ) ;
#182 = PERSON_AND_ORGANIZATION ( #83, #187 ) ;
#183 = DIRECTION ( 'NONE',  ( 0.000000000000000000, 0.000000000000000000, 1.000000000000000000 ) ) ;
#184 = PERSON_AND_ORGANIZATION_ROLE ( 'design_owner' ) ;
#185 = EDGE_LOOP ( 'NONE', ( #227, #134, #34, #231 ) ) ;
#186 = COORDINATED_UNIVERSAL_TIME_OFFSET ( 1, 0, .AHEAD. ) ;
#187 = ORGANIZATION ( 'UNSPECIFIED', 'UNSPECIFIED', '' ) ;
#188 = VECTOR ( 'NONE', #162, 1000.000000000000000 ) ;
#189 = DIRECTION ( 'NONE',  ( 0.000000000000000000, 1.000000000000000000, 0.000000000000000000 ) ) ;
#190 = PRODUCT_DEFINITION ( 'UNKNOWN', '', #135, #230 ) ;
#191 = CARTESIAN_POINT ( 'NONE',  ( 4.316879966994420283E-15, 0.000000000000000000, 35.25000000000000000 ) ) ;
#192 = ORIENTED_EDGE ( 'NONE', *, *, #75, .T. ) ;
#193 = CC_DESIGN_PERSON_AND_ORGANIZATION_ASSIGNMENT ( #49, #108, ( #135 ) ) ;
#194 = ORIENTED_EDGE ( 'NONE', *, *, #223, .F. ) ;
#195 =( GEOMETRIC_REPRESENTATION_CONTEXT ( 3 ) GLOBAL_UNCERTAINTY_ASSIGNED_CONTEXT ( ( #93 ) ) GLOBAL_UNIT_ASSIGNED_CONTEXT ( ( #167, #164, #180 ) ) REPRESENTATION_CONTEXT ( 'NONE', 'WORKASPACE' ) );
#196 = CARTESIAN_POINT ( 'NONE',  ( 0.000000000000000000, 4.000000000000000000, -35.25000000000000000 ) ) ;
#197 = FACE_OUTER_BOUND ( 'NONE', #14, .T. ) ;
#198 = PRODUCT_RELATED_PRODUCT_CATEGORY ( 'detail', '', ( #37 ) ) ;
#199 = MANIFOLD_SOLID_BREP ( 'Aufsatz-Linear austragen1', #113 ) ;
#200 = LINE ( 'NONE', #220, #204 ) ;
#201 = PERSON_AND_ORGANIZATION_ROLE ( 'creator' ) ;
#202 = EDGE_CURVE ( 'NONE', #224, #18, #200, .T. ) ;
#203 = CALENDAR_DATE ( 2024, 6, 8 ) ;
#204 = VECTOR ( 'NONE', #239, 1000.000000000000000 ) ;
#205 = DATE_TIME_ROLE ( 'classification_date' ) ;
#206 = CALENDAR_DATE ( 2024, 6, 8 ) ;
#207 = VERTEX_POINT ( 'NONE', #105 ) ;
#208 = ADVANCED_FACE ( 'NONE', ( #197 ), #142, .T. ) ;
#209 = CARTESIAN_POINT ( 'NONE',  ( 0.000000000000000000, 4.000000000000000000, 0.000000000000000000 ) ) ;
#210 = DIRECTION ( 'NONE',  ( 0.000000000000000000, 0.000000000000000000, 1.000000000000000000 ) ) ;
#211 = DIRECTION ( 'NONE',  ( 0.000000000000000000, 0.000000000000000000, -1.000000000000000000 ) ) ;
#212 = CIRCLE ( 'NONE', #221, 85.24999999999998579 ) ;
#213 = DIRECTION ( 'NONE',  ( 0.000000000000000000, -0.000000000000000000, 1.000000000000000000 ) ) ;
#214 = ORIENTED_EDGE ( 'NONE', *, *, #249, .F. ) ;
#215 = DIRECTION ( 'NONE',  ( 0.000000000000000000, 1.000000000000000000, 0.000000000000000000 ) ) ;
#216 = EDGE_CURVE ( 'NONE', #244, #138, #22, .T. ) ;
#217 = COORDINATED_UNIVERSAL_TIME_OFFSET ( 1, 0, .AHEAD. ) ;
#218 = APPROVAL_PERSON_ORGANIZATION ( #52, #141, #111 ) ;
#219 = CARTESIAN_POINT ( 'NONE',  ( 0.000000000000000000, 4.000000000000000000, 0.000000000000000000 ) ) ;
#220 = CARTESIAN_POINT ( 'NONE',  ( 1.044011396273118400E-14, 4.000000000000000000, 85.24999999999998579 ) ) ;
#221 = AXIS2_PLACEMENT_3D ( 'NONE', #209, #189, #117 ) ;
#222 = APPROVAL_STATUS ( 'not_yet_approved' ) ;
#223 = EDGE_CURVE ( 'NONE', #20, #224, #235, .T. ) ;
#224 = VERTEX_POINT ( 'NONE', #11 ) ;
#225 = PERSON_AND_ORGANIZATION ( #83, #187 ) ;
#226 = AXIS2_PLACEMENT_3D ( 'NONE', #76, #57, #213 ) ;
#227 = ORIENTED_EDGE ( 'NONE', *, *, #165, .F. ) ;
#228 = APPROVAL_DATE_TIME ( #13, #178 ) ;
#229 = CC_DESIGN_APPROVAL ( #178, ( #27 ) ) ;
#230 = DESIGN_CONTEXT ( 'detailed design', #139, 'design' ) ;
#231 = ORIENTED_EDGE ( 'NONE', *, *, #124, .F. ) ;
#232 = APPROVAL_PERSON_ORGANIZATION ( #68, #178, #33 ) ;
#233 = CARTESIAN_POINT ( 'NONE',  ( 0.000000000000000000, 4.000000000000000000, 0.000000000000000000 ) ) ;
#234 = CARTESIAN_POINT ( 'NONE',  ( 0.000000000000000000, 0.000000000000000000, -85.24999999999998579 ) ) ;
#235 = CIRCLE ( 'NONE', #87, 85.24999999999998579 ) ;
#236 = CARTESIAN_POINT ( 'NONE',  ( 4.316879966994420283E-15, 4.000000000000000000, 35.25000000000000000 ) ) ;
#237 = CARTESIAN_POINT ( 'NONE',  ( 4.316879966994420283E-15, 4.000000000000000000, 35.25000000000000000 ) ) ;
#238 = ADVANCED_FACE ( 'NONE', ( #85, #29 ), #89, .T. ) ;
#239 = DIRECTION ( 'NONE',  ( -0.000000000000000000, -1.000000000000000000, -0.000000000000000000 ) ) ;
#240 = DIRECTION ( 'NONE',  ( 0.000000000000000000, 1.000000000000000000, 0.000000000000000000 ) ) ;
#241 = PERSON_AND_ORGANIZATION ( #83, #187 ) ;
#242 = APPROVAL ( #86, 'UNSPECIFIED' ) ;
#243 = APPROVAL_STATUS ( 'not_yet_approved' ) ;
#244 = VERTEX_POINT ( 'NONE', #127 ) ;
#245 = APPROVAL_PERSON_ORGANIZATION ( #182, #242, #145 ) ;
#246 = DATE_AND_TIME ( #206, #58 ) ;
#247 = EDGE_LOOP ( 'NONE', ( #95, #60 ) ) ;
#248 = EDGE_LOOP ( 'NONE', ( #192, #3, #36, #172 ) ) ;
#249 = EDGE_CURVE ( 'NONE', #132, #18, #144, .T. ) ;
ENDSEC;
END-ISO-10303-21;
