ISO-10303-21;
HEADER;
FILE_DESCRIPTION (( 'STEP AP203' ),
    '1' );
FILE_NAME ('19-0408-08_outokumpu.step',
    '2015-08-11T09:44:05',
    ( '' ),
    ( '' ),
    'SwSTEP 2.0',
    'SolidWorks 2008',
    '' );
FILE_SCHEMA (( 'CONFIG_CONTROL_DESIGN' ));
ENDSEC;

DATA;
#1 = DIRECTION ( 'NONE',  ( -0.0000000000000000000, 3.911744792584156100E-017, -1.000000000000000000 ) ) ;
#2 = DIRECTION ( 'NONE',  ( 0.0000000000000000000, 1.000000000000000000, 0.0000000000000000000 ) ) ;
#3 = CARTESIAN_POINT ( 'NONE',  ( 0.0000000000000000000, 0.0000000000000000000, -120.0000000000000000 ) ) ;
#4 = DIRECTION ( 'NONE',  ( -0.0000000000000000000, -0.0000000000000000000, 1.000000000000000000 ) ) ;
#5 = DIRECTION ( 'NONE',  ( 1.000000000000000000, 0.0000000000000000000, 0.0000000000000000000 ) ) ;
#6 = CARTESIAN_POINT ( 'NONE',  ( 0.0000000000000000000, 1.224646799147375100E-015, -120.0000000000000900 ) ) ;
#7 = AXIS2_PLACEMENT_3D ( 'NONE', #6, #1, #2 ) ;
#8 = CYLINDRICAL_SURFACE ( 'NONE', #7, 22.42249999999999900 ) ;
#9 = FACE_OUTER_BOUND ( 'NONE', #31, .T. ) ;
#10 = DIRECTION ( 'NONE',  ( -0.0000000000000000000, -0.0000000000000000000, 1.000000000000000000 ) ) ;
#11 = VECTOR ( 'NONE', #10, 1000.000000000000000 ) ;
#12 = CARTESIAN_POINT ( 'NONE',  ( 27.80000000000000400, 0.0000000000000000000, -4.336808689942017700E-016 ) ) ;
#13 = LINE ( 'NONE', #12, #11 ) ;
#14 = CARTESIAN_POINT ( 'NONE',  ( 27.80000000000000400, 0.0000000000000000000, 0.0000000000000000000 ) ) ;
#15 = DIRECTION ( 'NONE',  ( 1.000000000000000000, 0.0000000000000000000, 0.0000000000000000000 ) ) ;
#16 = DIRECTION ( 'NONE',  ( -0.0000000000000000000, -0.0000000000000000000, 1.000000000000000000 ) ) ;
#17 = ORIENTED_EDGE ( 'NONE', *, *, #60, .T. ) ;
#18 = EDGE_LOOP ( 'NONE', ( #112, #109, #111, #105 ) ) ;
#19 = EDGE_LOOP ( 'NONE', ( #20, #17 ) ) ;
#20 = ORIENTED_EDGE ( 'NONE', *, *, #124, .T. ) ;
#21 = ORIENTED_EDGE ( 'NONE', *, *, #146, .F. ) ;
#22 = ORIENTED_EDGE ( 'NONE', *, *, #24, .F. ) ;
#23 = ORIENTED_EDGE ( 'NONE', *, *, #24, .T. ) ;
#24 = EDGE_CURVE ( 'NONE', #137, #138, #82, .T. ) ;
#25 = ORIENTED_EDGE ( 'NONE', *, *, #26, .F. ) ;
#26 = EDGE_CURVE ( 'NONE', #27, #141, #77, .T. ) ;
#27 = VERTEX_POINT ( 'NONE', #14 ) ;
#28 = ORIENTED_EDGE ( 'NONE', *, *, #29, .F. ) ;
#29 = EDGE_CURVE ( 'NONE', #137, #27, #13, .T. ) ;
#30 = ADVANCED_FACE ( 'NONE', ( #9 ), #8, .F. ) ;
#31 = EDGE_LOOP ( 'NONE', ( #32, #36, #38, #39, #42 ) ) ;
#32 = ORIENTED_EDGE ( 'NONE', *, *, #33, .F. ) ;
#33 = EDGE_CURVE ( 'NONE', #34, #35, #194, .T. ) ;
#34 = VERTEX_POINT ( 'NONE', #209 ) ;
#35 = VERTEX_POINT ( 'NONE', #193 ) ;
#36 = ORIENTED_EDGE ( 'NONE', *, *, #37, .T. ) ;
#37 = EDGE_CURVE ( 'NONE', #34, #51, #288, .T. ) ;
#38 = ORIENTED_EDGE ( 'NONE', *, *, #142, .F. ) ;
#39 = ORIENTED_EDGE ( 'NONE', *, *, #40, .F. ) ;
#40 = EDGE_CURVE ( 'NONE', #41, #135, #239, .T. ) ;
#41 = VERTEX_POINT ( 'NONE', #178 ) ;
#42 = ORIENTED_EDGE ( 'NONE', *, *, #43, .F. ) ;
#43 = EDGE_CURVE ( 'NONE', #35, #41, #208, .T. ) ;
#44 = ADVANCED_FACE ( 'NONE', ( #258 ), #257, .F. ) ;
#45 = EDGE_LOOP ( 'NONE', ( #53, #54, #56, #57 ) ) ;
#46 = EDGE_CURVE ( 'NONE', #118, #125, #284, .T. ) ;
#47 = ADVANCED_FACE ( 'NONE', ( #280 ), #278, .F. ) ;
#48 = EDGE_LOOP ( 'NONE', ( #49, #127, #130, #133, #136 ) ) ;
#49 = ORIENTED_EDGE ( 'NONE', *, *, #50, .T. ) ;
#50 = EDGE_CURVE ( 'NONE', #51, #52, #192, .T. ) ;
#51 = VERTEX_POINT ( 'NONE', #184 ) ;
#52 = VERTEX_POINT ( 'NONE', #183 ) ;
#53 = ORIENTED_EDGE ( 'NONE', *, *, #117, .F. ) ;
#54 = ORIENTED_EDGE ( 'NONE', *, *, #55, .T. ) ;
#55 = EDGE_CURVE ( 'NONE', #118, #132, #234, .T. ) ;
#56 = ORIENTED_EDGE ( 'NONE', *, *, #131, .T. ) ;
#57 = ORIENTED_EDGE ( 'NONE', *, *, #58, .F. ) ;
#58 = EDGE_CURVE ( 'NONE', #119, #129, #230, .T. ) ;
#59 = ADVANCED_FACE ( 'NONE', ( #226, #225 ), #224, .F. ) ;
#60 = EDGE_CURVE ( 'NONE', #122, #125, #217, .T. ) ;
#61 = ADVANCED_FACE ( 'NONE', ( #213 ), #248, .F. ) ;
#62 = ADVANCED_FACE ( 'NONE', ( #247 ), #243, .T. ) ;
#63 = EDGE_LOOP ( 'NONE', ( #64, #65, #84, #85 ) ) ;
#64 = ORIENTED_EDGE ( 'NONE', *, *, #140, .F. ) ;
#65 = ORIENTED_EDGE ( 'NONE', *, *, #146, .T. ) ;
#66 = ORIENTED_EDGE ( 'NONE', *, *, #102, .T. ) ;
#67 = ORIENTED_EDGE ( 'NONE', *, *, #40, .T. ) ;
#68 = ORIENTED_EDGE ( 'NONE', *, *, #134, .T. ) ;
#69 = ORIENTED_EDGE ( 'NONE', *, *, #106, .F. ) ;
#70 = ADVANCED_FACE ( 'NONE', ( #242 ), #175, .F. ) ;
#71 = EDGE_LOOP ( 'NONE', ( #72, #73, #74, #75 ) ) ;
#72 = ORIENTED_EDGE ( 'NONE', *, *, #121, .F. ) ;
#73 = ORIENTED_EDGE ( 'NONE', *, *, #110, .T. ) ;
#74 = ORIENTED_EDGE ( 'NONE', *, *, #46, .T. ) ;
#75 = ORIENTED_EDGE ( 'NONE', *, *, #60, .F. ) ;
#76 = AXIS2_PLACEMENT_3D ( 'NONE', #83, #16, #15 ) ;
#77 = CIRCLE ( 'NONE', #76, 27.80000000000000400 ) ;
#78 = DIRECTION ( 'NONE',  ( 1.000000000000000000, 0.0000000000000000000, 0.0000000000000000000 ) ) ;
#79 = DIRECTION ( 'NONE',  ( -0.0000000000000000000, -0.0000000000000000000, 1.000000000000000000 ) ) ;
#80 = CARTESIAN_POINT ( 'NONE',  ( 0.0000000000000000000, 0.0000000000000000000, -120.0000000000000000 ) ) ;
#81 = AXIS2_PLACEMENT_3D ( 'NONE', #80, #79, #78 ) ;
#82 = CIRCLE ( 'NONE', #81, 27.80000000000000400 ) ;
#83 = CARTESIAN_POINT ( 'NONE',  ( 0.0000000000000000000, 0.0000000000000000000, 0.0000000000000000000 ) ) ;
#84 = ORIENTED_EDGE ( 'NONE', *, *, #29, .T. ) ;
#85 = ORIENTED_EDGE ( 'NONE', *, *, #86, .F. ) ;
#86 = EDGE_CURVE ( 'NONE', #141, #27, #170, .T. ) ;
#87 = ADVANCED_FACE ( 'NONE', ( #165, #164 ), #163, .F. ) ;
#88 = EDGE_LOOP ( 'NONE', ( #89, #90 ) ) ;
#89 = ORIENTED_EDGE ( 'NONE', *, *, #99, .T. ) ;
#90 = ORIENTED_EDGE ( 'NONE', *, *, #33, .T. ) ;
#91 = EDGE_LOOP ( 'NONE', ( #92, #93 ) ) ;
#92 = ORIENTED_EDGE ( 'NONE', *, *, #26, .T. ) ;
#93 = ORIENTED_EDGE ( 'NONE', *, *, #86, .T. ) ;
#94 = ADVANCED_FACE ( 'NONE', ( #161 ), #157, .F. ) ;
#95 = EDGE_LOOP ( 'NONE', ( #96, #66, #67, #68, #69 ) ) ;
#96 = ORIENTED_EDGE ( 'NONE', *, *, #128, .F. ) ;
#97 = ORIENTED_EDGE ( 'NONE', *, *, #37, .F. ) ;
#98 = ORIENTED_EDGE ( 'NONE', *, *, #99, .F. ) ;
#99 = EDGE_CURVE ( 'NONE', #35, #34, #156, .T. ) ;
#100 = ORIENTED_EDGE ( 'NONE', *, *, #43, .T. ) ;
#101 = ORIENTED_EDGE ( 'NONE', *, *, #102, .F. ) ;
#102 = EDGE_CURVE ( 'NONE', #52, #41, #147, .T. ) ;
#103 = ORIENTED_EDGE ( 'NONE', *, *, #50, .F. ) ;
#104 = CLOSED_SHELL ( 'NONE', ( #114, #47, #143, #30, #44, #59, #61, #107, #62, #87, #94, #70 ) ) ;
#105 = ORIENTED_EDGE ( 'NONE', *, *, #106, .T. ) ;
#106 = EDGE_CURVE ( 'NONE', #129, #132, #295, .T. ) ;
#107 = ADVANCED_FACE ( 'NONE', ( #290 ), #289, .F. ) ;
#108 = EDGE_LOOP ( 'NONE', ( #97, #98, #100, #101, #103 ) ) ;
#109 = ORIENTED_EDGE ( 'NONE', *, *, #110, .F. ) ;
#110 = EDGE_CURVE ( 'NONE', #119, #118, #332, .T. ) ;
#111 = ORIENTED_EDGE ( 'NONE', *, *, #58, .T. ) ;
#112 = ORIENTED_EDGE ( 'NONE', *, *, #55, .F. ) ;
#113 = MANIFOLD_SOLID_BREP ( 'NONE', #104 ) ;
#114 = ADVANCED_FACE ( 'NONE', ( #323 ), #322, .F. ) ;
#115 = EDGE_LOOP ( 'NONE', ( #116, #120, #123, #126 ) ) ;
#116 = ORIENTED_EDGE ( 'NONE', *, *, #117, .T. ) ;
#117 = EDGE_CURVE ( 'NONE', #118, #119, #321, .T. ) ;
#118 = VERTEX_POINT ( 'NONE', #312 ) ;
#119 = VERTEX_POINT ( 'NONE', #311 ) ;
#120 = ORIENTED_EDGE ( 'NONE', *, *, #121, .T. ) ;
#121 = EDGE_CURVE ( 'NONE', #119, #122, #310, .T. ) ;
#122 = VERTEX_POINT ( 'NONE', #306 ) ;
#123 = ORIENTED_EDGE ( 'NONE', *, *, #124, .F. ) ;
#124 = EDGE_CURVE ( 'NONE', #125, #122, #305, .T. ) ;
#125 = VERTEX_POINT ( 'NONE', #300 ) ;
#126 = ORIENTED_EDGE ( 'NONE', *, *, #46, .F. ) ;
#127 = ORIENTED_EDGE ( 'NONE', *, *, #128, .T. ) ;
#128 = EDGE_CURVE ( 'NONE', #52, #129, #256, .T. ) ;
#129 = VERTEX_POINT ( 'NONE', #252 ) ;
#130 = ORIENTED_EDGE ( 'NONE', *, *, #131, .F. ) ;
#131 = EDGE_CURVE ( 'NONE', #132, #129, #251, .T. ) ;
#132 = VERTEX_POINT ( 'NONE', #275 ) ;
#133 = ORIENTED_EDGE ( 'NONE', *, *, #134, .F. ) ;
#134 = EDGE_CURVE ( 'NONE', #135, #132, #274, .T. ) ;
#135 = VERTEX_POINT ( 'NONE', #270 ) ;
#136 = ORIENTED_EDGE ( 'NONE', *, *, #142, .T. ) ;
#137 = VERTEX_POINT ( 'NONE', #269 ) ;
#138 = VERTEX_POINT ( 'NONE', #268 ) ;
#139 = ORIENTED_EDGE ( 'NONE', *, *, #140, .T. ) ;
#140 = EDGE_CURVE ( 'NONE', #138, #141, #267, .T. ) ;
#141 = VERTEX_POINT ( 'NONE', #263 ) ;
#142 = EDGE_CURVE ( 'NONE', #135, #51, #262, .T. ) ;
#143 = ADVANCED_FACE ( 'NONE', ( #202 ), #201, .T. ) ;
#144 = EDGE_LOOP ( 'NONE', ( #23, #139, #25, #28 ) ) ;
#145 = EDGE_LOOP ( 'NONE', ( #22, #21 ) ) ;
#146 = EDGE_CURVE ( 'NONE', #138, #137, #200, .T. ) ;
#147 = CIRCLE ( 'NONE', #299, 22.42249999999998500 ) ;
#148 = DIRECTION ( 'NONE',  ( 0.0000000000000000000, 1.000000000000000000, 3.911744792584156100E-017 ) ) ;
#149 = DIRECTION ( 'NONE',  ( -0.0000000000000000000, 3.911744792584156100E-017, -1.000000000000000000 ) ) ;
#150 = CARTESIAN_POINT ( 'NONE',  ( 0.0000000000000000000, -3.469446951953615000E-015, 0.0000000000000000000 ) ) ;
#151 = AXIS2_PLACEMENT_3D ( 'NONE', #150, #149, #148 ) ;
#152 = DIRECTION ( 'NONE',  ( -1.000000000000000000, 0.0000000000000000000, 0.0000000000000000000 ) ) ;
#153 = DIRECTION ( 'NONE',  ( 0.0000000000000000000, 0.0000000000000000000, -1.000000000000000000 ) ) ;
#154 = CARTESIAN_POINT ( 'NONE',  ( 0.0000000000000000000, 0.0000000000000000000, -99.15450000000001300 ) ) ;
#155 = AXIS2_PLACEMENT_3D ( 'NONE', #154, #153, #152 ) ;
#156 = CIRCLE ( 'NONE', #151, 22.42249999999998900 ) ;
#157 = CONICAL_SURFACE ( 'NONE', #155, 23.90149999999999900, 0.9080002089392065200 ) ;
#158 = DIRECTION ( 'NONE',  ( -1.000000000000000000, 0.0000000000000000000, -0.0000000000000000000 ) ) ;
#159 = DIRECTION ( 'NONE',  ( 0.0000000000000000000, 0.0000000000000000000, -1.000000000000000000 ) ) ;
#160 = AXIS2_PLACEMENT_3D ( 'NONE', #162, #159, #158 ) ;
#161 = FACE_OUTER_BOUND ( 'NONE', #95, .T. ) ;
#162 = CARTESIAN_POINT ( 'NONE',  ( 0.0000000000000000000, 27.80000000000000400, -2.168404344971008900E-016 ) ) ;
#163 = PLANE ( 'NONE',  #160 ) ;
#164 = FACE_OUTER_BOUND ( 'NONE', #91, .T. ) ;
#165 = FACE_BOUND ( 'NONE', #88, .T. ) ;
#166 = DIRECTION ( 'NONE',  ( 1.000000000000000000, 0.0000000000000000000, 0.0000000000000000000 ) ) ;
#167 = DIRECTION ( 'NONE',  ( -0.0000000000000000000, -0.0000000000000000000, 1.000000000000000000 ) ) ;
#168 = CARTESIAN_POINT ( 'NONE',  ( 0.0000000000000000000, 0.0000000000000000000, 0.0000000000000000000 ) ) ;
#169 = AXIS2_PLACEMENT_3D ( 'NONE', #168, #167, #166 ) ;
#170 = CIRCLE ( 'NONE', #169, 27.80000000000000400 ) ;
#171 = DIRECTION ( 'NONE',  ( -1.000000000000000000, 0.0000000000000000000, 0.0000000000000000000 ) ) ;
#172 = DIRECTION ( 'NONE',  ( 0.0000000000000000000, 0.0000000000000000000, -1.000000000000000000 ) ) ;
#173 = CARTESIAN_POINT ( 'NONE',  ( 0.0000000000000000000, 0.0000000000000000000, -120.0000000000000000 ) ) ;
#174 = AXIS2_PLACEMENT_3D ( 'NONE', #173, #172, #171 ) ;
#175 = CONICAL_SURFACE ( 'NONE', #174, 24.73615877200687800, 0.7853981633974608200 ) ;
#176 = DIRECTION ( 'NONE',  ( 1.000000000000000000, 0.0000000000000000000, 0.0000000000000000000 ) ) ;
#177 = DIRECTION ( 'NONE',  ( -0.0000000000000000000, -0.0000000000000000000, 1.000000000000000000 ) ) ;
#178 = CARTESIAN_POINT ( 'NONE',  ( 0.0000000000000000000, 22.42249999999998500, -98.00000000000000000 ) ) ;
#179 = DIRECTION ( 'NONE',  ( 1.000000000000000000, 0.0000000000000000000, 0.0000000000000000000 ) ) ;
#180 = DIRECTION ( 'NONE',  ( -0.0000000000000000000, -0.0000000000000000000, 1.000000000000000000 ) ) ;
#181 = CARTESIAN_POINT ( 'NONE',  ( 0.0000000000000000000, 0.0000000000000000000, -98.00000000000000000 ) ) ;
#182 = AXIS2_PLACEMENT_3D ( 'NONE', #181, #180, #179 ) ;
#183 = CARTESIAN_POINT ( 'NONE',  ( 22.42249999999998500, 2.836433236723389300E-015, -98.00000000000000000 ) ) ;
#184 = CARTESIAN_POINT ( 'NONE',  ( 2.745873596858224500E-015, -22.42249999999998500, -98.00000000000000000 ) ) ;
#185 = DIRECTION ( 'NONE',  ( 1.000000000000000000, 0.0000000000000000000, 0.0000000000000000000 ) ) ;
#186 = DIRECTION ( 'NONE',  ( -0.0000000000000000000, -0.0000000000000000000, 1.000000000000000000 ) ) ;
#187 = CARTESIAN_POINT ( 'NONE',  ( 0.0000000000000000000, 0.0000000000000000000, -98.00000000000000000 ) ) ;
#188 = AXIS2_PLACEMENT_3D ( 'NONE', #187, #186, #185 ) ;
#189 = DIRECTION ( 'NONE',  ( -1.000000000000000000, 0.0000000000000000000, 0.0000000000000000000 ) ) ;
#190 = DIRECTION ( 'NONE',  ( 0.0000000000000000000, 0.0000000000000000000, -1.000000000000000000 ) ) ;
#191 = CARTESIAN_POINT ( 'NONE',  ( 0.0000000000000000000, 0.0000000000000000000, -99.15450000000001300 ) ) ;
#192 = CIRCLE ( 'NONE', #188, 22.42249999999998500 ) ;
#193 = CARTESIAN_POINT ( 'NONE',  ( 0.0000000000000000000, 22.42249999999998500, 8.771109761171819400E-016 ) ) ;
#194 = CIRCLE ( 'NONE', #212, 22.42249999999998900 ) ;
#195 = AXIS2_PLACEMENT_3D ( 'NONE', #3, #4, #5 ) ;
#196 = DIRECTION ( 'NONE',  ( 1.000000000000000000, 0.0000000000000000000, 0.0000000000000000000 ) ) ;
#197 = DIRECTION ( 'NONE',  ( -0.0000000000000000000, -0.0000000000000000000, 1.000000000000000000 ) ) ;
#198 = CARTESIAN_POINT ( 'NONE',  ( 0.0000000000000000000, 0.0000000000000000000, -4.336808689942017700E-016 ) ) ;
#199 = AXIS2_PLACEMENT_3D ( 'NONE', #198, #197, #196 ) ;
#200 = CIRCLE ( 'NONE', #195, 27.80000000000000400 ) ;
#201 = CYLINDRICAL_SURFACE ( 'NONE', #199, 27.80000000000000400 ) ;
#202 = FACE_OUTER_BOUND ( 'NONE', #144, .T. ) ;
#203 = DIRECTION ( 'NONE',  ( 1.000000000000000000, 0.0000000000000000000, 0.0000000000000000000 ) ) ;
#204 = DIRECTION ( 'NONE',  ( -0.0000000000000000000, -0.0000000000000000000, 1.000000000000000000 ) ) ;
#205 = AXIS2_PLACEMENT_3D ( 'NONE', #261, #204, #203 ) ;
#206 = CARTESIAN_POINT ( 'NONE',  ( 0.0000000000000000000, -3.469446951953615000E-015, 0.0000000000000000000 ) ) ;
#207 = CARTESIAN_POINT ( 'NONE',  ( 0.0000000000000000000, 22.42249999999999900, -120.0000000000000900 ) ) ;
#208 = LINE ( 'NONE', #207, #260 ) ;
#209 = CARTESIAN_POINT ( 'NONE',  ( 2.745873596858224900E-015, -22.42249999999999200, -8.771109761171819400E-016 ) ) ;
#210 = DIRECTION ( 'NONE',  ( 0.0000000000000000000, 1.000000000000000000, 3.911744792584156100E-017 ) ) ;
#211 = DIRECTION ( 'NONE',  ( -0.0000000000000000000, 3.911744792584156100E-017, -1.000000000000000000 ) ) ;
#212 = AXIS2_PLACEMENT_3D ( 'NONE', #206, #211, #210 ) ;
#213 = FACE_OUTER_BOUND ( 'NONE', #18, .T. ) ;
#214 = DIRECTION ( 'NONE',  ( 1.000000000000000000, 0.0000000000000000000, 0.0000000000000000000 ) ) ;
#215 = DIRECTION ( 'NONE',  ( -0.0000000000000000000, -0.0000000000000000000, 1.000000000000000000 ) ) ;
#216 = AXIS2_PLACEMENT_3D ( 'NONE', #222, #215, #214 ) ;
#217 = CIRCLE ( 'NONE', #216, 24.73615877200687800 ) ;
#218 = CARTESIAN_POINT ( 'NONE',  ( 0.0000000000000000000, 0.0000000000000000000, -4.336808689942017700E-016 ) ) ;
#219 = DIRECTION ( 'NONE',  ( 1.000000000000000000, 0.0000000000000000000, 0.0000000000000000000 ) ) ;
#220 = DIRECTION ( 'NONE',  ( 0.0000000000000000000, -0.0000000000000000000, 1.000000000000000000 ) ) ;
#221 = AXIS2_PLACEMENT_3D ( 'NONE', #223, #220, #219 ) ;
#222 = CARTESIAN_POINT ( 'NONE',  ( 0.0000000000000000000, 0.0000000000000000000, -120.0000000000000000 ) ) ;
#223 = CARTESIAN_POINT ( 'NONE',  ( 0.0000000000000000000, 27.80000000000000400, -120.0000000000000000 ) ) ;
#224 = PLANE ( 'NONE',  #221 ) ;
#225 = FACE_BOUND ( 'NONE', #19, .T. ) ;
#226 = FACE_OUTER_BOUND ( 'NONE', #145, .T. ) ;
#227 = DIRECTION ( 'NONE',  ( -0.0000000000000000000, -0.0000000000000000000, 1.000000000000000000 ) ) ;
#228 = VECTOR ( 'NONE', #227, 1000.000000000000000 ) ;
#229 = CARTESIAN_POINT ( 'NONE',  ( 23.90149999999999900, 0.0000000000000000000, -4.336808689942017700E-016 ) ) ;
#230 = LINE ( 'NONE', #229, #228 ) ;
#231 = DIRECTION ( 'NONE',  ( -0.0000000000000000000, -0.0000000000000000000, 1.000000000000000000 ) ) ;
#232 = VECTOR ( 'NONE', #231, 1000.000000000000000 ) ;
#233 = CARTESIAN_POINT ( 'NONE',  ( -23.90149999999999900, 2.926992876588555000E-015, -4.336808689942017700E-016 ) ) ;
#234 = LINE ( 'NONE', #233, #232 ) ;
#235 = DIRECTION ( 'NONE',  ( 1.000000000000000000, 0.0000000000000000000, 0.0000000000000000000 ) ) ;
#236 = DIRECTION ( 'NONE',  ( -0.0000000000000000000, -0.0000000000000000000, 1.000000000000000000 ) ) ;
#237 = CARTESIAN_POINT ( 'NONE',  ( 0.0000000000000000000, 0.0000000000000000000, -4.336808689942017700E-016 ) ) ;
#238 = AXIS2_PLACEMENT_3D ( 'NONE', #237, #236, #235 ) ;
#239 = CIRCLE ( 'NONE', #182, 22.42249999999998500 ) ;
#240 = CARTESIAN_POINT ( 'NONE',  ( 0.0000000000000000000, 0.0000000000000000000, -4.336808689942017700E-016 ) ) ;
#241 = AXIS2_PLACEMENT_3D ( 'NONE', #240, #177, #176 ) ;
#242 = FACE_OUTER_BOUND ( 'NONE', #71, .T. ) ;
#243 = CYLINDRICAL_SURFACE ( 'NONE', #241, 27.80000000000000400 ) ;
#244 = DIRECTION ( 'NONE',  ( 1.000000000000000000, 0.0000000000000000000, 0.0000000000000000000 ) ) ;
#245 = DIRECTION ( 'NONE',  ( -0.0000000000000000000, -0.0000000000000000000, 1.000000000000000000 ) ) ;
#246 = AXIS2_PLACEMENT_3D ( 'NONE', #218, #245, #244 ) ;
#247 = FACE_OUTER_BOUND ( 'NONE', #63, .T. ) ;
#248 = CYLINDRICAL_SURFACE ( 'NONE', #246, 23.90149999999999900 ) ;
#249 = CARTESIAN_POINT ( 'NONE',  ( 0.0000000000000000000, 0.0000000000000000000, -99.15450000000001300 ) ) ;
#250 = AXIS2_PLACEMENT_3D ( 'NONE', #249, #277, #276 ) ;
#251 = CIRCLE ( 'NONE', #250, 23.90149999999999900 ) ;
#252 = CARTESIAN_POINT ( 'NONE',  ( 23.90149999999999900, 0.0000000000000000000, -99.15450000000001300 ) ) ;
#253 = DIRECTION ( 'NONE',  ( 0.7882747985675397900, 9.653263268838637600E-017, -0.6153233637229327300 ) ) ;
#254 = VECTOR ( 'NONE', #253, 1000.000000000000000 ) ;
#255 = CARTESIAN_POINT ( 'NONE',  ( 23.90149999999999900, 2.926992876588555000E-015, -99.15450000000001300 ) ) ;
#256 = LINE ( 'NONE', #255, #254 ) ;
#257 = CYLINDRICAL_SURFACE ( 'NONE', #238, 23.90149999999999900 ) ;
#258 = FACE_OUTER_BOUND ( 'NONE', #45, .T. ) ;
#259 = DIRECTION ( 'NONE',  ( -0.0000000000000000000, 3.911744792584156100E-017, -1.000000000000000000 ) ) ;
#260 = VECTOR ( 'NONE', #259, 1000.000000000000000 ) ;
#261 = CARTESIAN_POINT ( 'NONE',  ( 0.0000000000000000000, 0.0000000000000000000, -98.00000000000000000 ) ) ;
#262 = CIRCLE ( 'NONE', #205, 22.42249999999998500 ) ;
#263 = CARTESIAN_POINT ( 'NONE',  ( -27.80000000000000400, 3.404405663626209400E-015, 0.0000000000000000000 ) ) ;
#264 = DIRECTION ( 'NONE',  ( -0.0000000000000000000, -0.0000000000000000000, 1.000000000000000000 ) ) ;
#265 = VECTOR ( 'NONE', #264, 1000.000000000000000 ) ;
#266 = CARTESIAN_POINT ( 'NONE',  ( -27.80000000000000400, 3.404405663626209400E-015, -4.336808689942017700E-016 ) ) ;
#267 = LINE ( 'NONE', #266, #265 ) ;
#268 = CARTESIAN_POINT ( 'NONE',  ( -27.80000000000000400, 3.404405663626209400E-015, -120.0000000000000000 ) ) ;
#269 = CARTESIAN_POINT ( 'NONE',  ( 27.80000000000000400, 0.0000000000000000000, -120.0000000000000000 ) ) ;
#270 = CARTESIAN_POINT ( 'NONE',  ( -22.42249999999998500, 0.0000000000000000000, -98.00000000000000000 ) ) ;
#271 = DIRECTION ( 'NONE',  ( -0.7882747985675397900, 0.0000000000000000000, -0.6153233637229327300 ) ) ;
#272 = VECTOR ( 'NONE', #271, 1000.000000000000000 ) ;
#273 = CARTESIAN_POINT ( 'NONE',  ( -23.90149999999999900, 0.0000000000000000000, -99.15450000000001300 ) ) ;
#274 = LINE ( 'NONE', #273, #272 ) ;
#275 = CARTESIAN_POINT ( 'NONE',  ( -23.90149999999999900, 2.926992876588555000E-015, -99.15450000000001300 ) ) ;
#276 = DIRECTION ( 'NONE',  ( 1.000000000000000000, 0.0000000000000000000, 0.0000000000000000000 ) ) ;
#277 = DIRECTION ( 'NONE',  ( -0.0000000000000000000, -0.0000000000000000000, 1.000000000000000000 ) ) ;
#278 = CONICAL_SURFACE ( 'NONE', #279, 23.90149999999999900, 0.9080002089392065200 ) ;
#279 = AXIS2_PLACEMENT_3D ( 'NONE', #191, #190, #189 ) ;
#280 = FACE_OUTER_BOUND ( 'NONE', #48, .T. ) ;
#281 = DIRECTION ( 'NONE',  ( -0.7071067811865563400, 0.0000000000000000000, -0.7071067811865388000 ) ) ;
#282 = VECTOR ( 'NONE', #281, 999.9999999999998900 ) ;
#283 = CARTESIAN_POINT ( 'NONE',  ( -24.73615877200687800, 0.0000000000000000000, -120.0000000000000000 ) ) ;
#284 = LINE ( 'NONE', #283, #282 ) ;
#285 = DIRECTION ( 'NONE',  ( -0.0000000000000000000, 3.911744792584156100E-017, -1.000000000000000000 ) ) ;
#286 = VECTOR ( 'NONE', #285, 1000.000000000000000 ) ;
#287 = CARTESIAN_POINT ( 'NONE',  ( 2.745873596858225300E-015, -22.42249999999999900, -120.0000000000000900 ) ) ;
#288 = LINE ( 'NONE', #287, #286 ) ;
#289 = CYLINDRICAL_SURFACE ( 'NONE', #331, 22.42249999999999900 ) ;
#290 = FACE_OUTER_BOUND ( 'NONE', #108, .T. ) ;
#291 = DIRECTION ( 'NONE',  ( 1.000000000000000000, 0.0000000000000000000, 0.0000000000000000000 ) ) ;
#292 = DIRECTION ( 'NONE',  ( -0.0000000000000000000, -0.0000000000000000000, 1.000000000000000000 ) ) ;
#293 = CARTESIAN_POINT ( 'NONE',  ( 0.0000000000000000000, 0.0000000000000000000, -99.15450000000001300 ) ) ;
#294 = AXIS2_PLACEMENT_3D ( 'NONE', #293, #292, #291 ) ;
#295 = CIRCLE ( 'NONE', #294, 23.90149999999999900 ) ;
#296 = DIRECTION ( 'NONE',  ( 1.000000000000000000, 0.0000000000000000000, 0.0000000000000000000 ) ) ;
#297 = DIRECTION ( 'NONE',  ( -0.0000000000000000000, -0.0000000000000000000, 1.000000000000000000 ) ) ;
#298 = CARTESIAN_POINT ( 'NONE',  ( 0.0000000000000000000, 0.0000000000000000000, -98.00000000000000000 ) ) ;
#299 = AXIS2_PLACEMENT_3D ( 'NONE', #298, #297, #296 ) ;
#300 = CARTESIAN_POINT ( 'NONE',  ( -24.73615877200687800, 0.0000000000000000000, -120.0000000000000000 ) ) ;
#301 = DIRECTION ( 'NONE',  ( 1.000000000000000000, 0.0000000000000000000, 0.0000000000000000000 ) ) ;
#302 = DIRECTION ( 'NONE',  ( -0.0000000000000000000, -0.0000000000000000000, 1.000000000000000000 ) ) ;
#303 = CARTESIAN_POINT ( 'NONE',  ( 0.0000000000000000000, 0.0000000000000000000, -120.0000000000000000 ) ) ;
#304 = AXIS2_PLACEMENT_3D ( 'NONE', #303, #302, #301 ) ;
#305 = CIRCLE ( 'NONE', #304, 24.73615877200687800 ) ;
#306 = CARTESIAN_POINT ( 'NONE',  ( 24.73615877200687800, 3.029205720135875500E-015, -120.0000000000000000 ) ) ;
#307 = DIRECTION ( 'NONE',  ( 0.7071067811865563400, 8.659274570719462600E-017, -0.7071067811865388000 ) ) ;
#308 = VECTOR ( 'NONE', #307, 999.9999999999998900 ) ;
#309 = CARTESIAN_POINT ( 'NONE',  ( 24.73615877200687800, 3.029205720135875500E-015, -120.0000000000000000 ) ) ;
#310 = LINE ( 'NONE', #309, #308 ) ;
#311 = CARTESIAN_POINT ( 'NONE',  ( 23.90150000000000600, 0.0000000000000000000, -119.1653412279931500 ) ) ;
#312 = CARTESIAN_POINT ( 'NONE',  ( -23.90150000000000600, 2.926992876588555800E-015, -119.1653412279931500 ) ) ;
#313 = DIRECTION ( 'NONE',  ( 1.000000000000000000, 0.0000000000000000000, 0.0000000000000000000 ) ) ;
#314 = DIRECTION ( 'NONE',  ( -0.0000000000000000000, -0.0000000000000000000, 1.000000000000000000 ) ) ;
#315 = CARTESIAN_POINT ( 'NONE',  ( 0.0000000000000000000, 0.0000000000000000000, -119.1653412279931500 ) ) ;
#316 = AXIS2_PLACEMENT_3D ( 'NONE', #315, #314, #313 ) ;
#317 = DIRECTION ( 'NONE',  ( -1.000000000000000000, 0.0000000000000000000, 0.0000000000000000000 ) ) ;
#318 = DIRECTION ( 'NONE',  ( 0.0000000000000000000, 0.0000000000000000000, -1.000000000000000000 ) ) ;
#319 = CARTESIAN_POINT ( 'NONE',  ( 0.0000000000000000000, 0.0000000000000000000, -120.0000000000000000 ) ) ;
#320 = AXIS2_PLACEMENT_3D ( 'NONE', #319, #318, #317 ) ;
#321 = CIRCLE ( 'NONE', #316, 23.90150000000000600 ) ;
#322 = CONICAL_SURFACE ( 'NONE', #320, 24.73615877200687800, 0.7853981633974608200 ) ;
#323 = FACE_OUTER_BOUND ( 'NONE', #115, .T. ) ;
#324 = DIRECTION ( 'NONE',  ( 1.000000000000000000, 0.0000000000000000000, 0.0000000000000000000 ) ) ;
#325 = DIRECTION ( 'NONE',  ( -0.0000000000000000000, -0.0000000000000000000, 1.000000000000000000 ) ) ;
#326 = CARTESIAN_POINT ( 'NONE',  ( 0.0000000000000000000, 0.0000000000000000000, -119.1653412279931500 ) ) ;
#327 = AXIS2_PLACEMENT_3D ( 'NONE', #326, #325, #324 ) ;
#328 = DIRECTION ( 'NONE',  ( 0.0000000000000000000, 1.000000000000000000, 0.0000000000000000000 ) ) ;
#329 = DIRECTION ( 'NONE',  ( -0.0000000000000000000, 3.911744792584156100E-017, -1.000000000000000000 ) ) ;
#330 = CARTESIAN_POINT ( 'NONE',  ( 0.0000000000000000000, 1.224646799147375100E-015, -120.0000000000000900 ) ) ;
#331 = AXIS2_PLACEMENT_3D ( 'NONE', #330, #329, #328 ) ;
#332 = CIRCLE ( 'NONE', #327, 23.90150000000000600 ) ;
#333 = PRODUCT_DEFINITION_SHAPE ( 'NONE', 'NONE',  #411 ) ;
#334 = PRODUCT_RELATED_PRODUCT_CATEGORY ( 'detail', '', ( #378 ) ) ;
#335 = CC_DESIGN_SECURITY_CLASSIFICATION ( #356, ( #390 ) ) ;
#336 = CC_DESIGN_APPROVAL ( #344, ( #356 ) ) ;
#337 = APPROVAL_DATE_TIME ( #338, #344 ) ;
#338 = DATE_AND_TIME ( #339, #340 ) ;
#339 = CALENDAR_DATE ( 2015, 11, 8 ) ;
#340 = LOCAL_TIME ( 11, 44, 5.000000000000000000, #341 ) ;
#341 = COORDINATED_UNIVERSAL_TIME_OFFSET ( 1, 0, .AHEAD. ) ;
#342 = APPROVAL_PERSON_ORGANIZATION ( #346, #344, #343 ) ;
#343 = APPROVAL_ROLE ( '' ) ;
#344 = APPROVAL ( #345, 'UNSPECIFIED' ) ;
#345 = APPROVAL_STATUS ( 'not_yet_approved' ) ;
#346 = PERSON_AND_ORGANIZATION ( #377, #418 ) ;
#347 = CC_DESIGN_DATE_AND_TIME_ASSIGNMENT ( #349, #348, ( #356 ) ) ;
#348 = DATE_TIME_ROLE ( 'classification_date' ) ;
#349 = DATE_AND_TIME ( #350, #351 ) ;
#350 = CALENDAR_DATE ( 2015, 11, 8 ) ;
#351 = LOCAL_TIME ( 11, 44, 5.000000000000000000, #352 ) ;
#352 = COORDINATED_UNIVERSAL_TIME_OFFSET ( 1, 0, .AHEAD. ) ;
#353 = CC_DESIGN_PERSON_AND_ORGANIZATION_ASSIGNMENT ( #355, #354, ( #356 ) ) ;
#354 = PERSON_AND_ORGANIZATION_ROLE ( 'classification_officer' ) ;
#355 = PERSON_AND_ORGANIZATION ( #377, #418 ) ;
#356 = SECURITY_CLASSIFICATION ( '', '', #357 ) ;
#357 = SECURITY_CLASSIFICATION_LEVEL ( 'unclassified' ) ;
#358 = CC_DESIGN_PERSON_AND_ORGANIZATION_ASSIGNMENT ( #360, #359, ( #390 ) ) ;
#359 = PERSON_AND_ORGANIZATION_ROLE ( 'design_supplier' ) ;
#360 = PERSON_AND_ORGANIZATION ( #377, #418 ) ;
#361 = CC_DESIGN_PERSON_AND_ORGANIZATION_ASSIGNMENT ( #363, #362, ( #390 ) ) ;
#362 = PERSON_AND_ORGANIZATION_ROLE ( 'creator' ) ;
#363 = PERSON_AND_ORGANIZATION ( #377, #418 ) ;
#364 = CC_DESIGN_APPROVAL ( #372, ( #390 ) ) ;
#365 = APPROVAL_DATE_TIME ( #366, #372 ) ;
#366 = DATE_AND_TIME ( #367, #368 ) ;
#367 = CALENDAR_DATE ( 2015, 11, 8 ) ;
#368 = LOCAL_TIME ( 11, 44, 5.000000000000000000, #369 ) ;
#369 = COORDINATED_UNIVERSAL_TIME_OFFSET ( 1, 0, .AHEAD. ) ;
#370 = APPROVAL_PERSON_ORGANIZATION ( #389, #372, #371 ) ;
#371 = APPROVAL_ROLE ( '' ) ;
#372 = APPROVAL ( #373, 'UNSPECIFIED' ) ;
#373 = APPROVAL_STATUS ( 'not_yet_approved' ) ;
#374 = UNCERTAINTY_MEASURE_WITH_UNIT (LENGTH_MEASURE( 1.000000000000000100E-005 ), #419, 'distance_accuracy_value', 'NONE');
#375 =( NAMED_UNIT ( * ) SI_UNIT ( $, .STERADIAN. ) SOLID_ANGLE_UNIT ( ) );
#376 =( NAMED_UNIT ( * ) PLANE_ANGLE_UNIT ( ) SI_UNIT ( $, .RADIAN. ) );
#377 = PERSON ( 'UNSPECIFIED', 'UNSPECIFIED', 'UNSPECIFIED', ('UNSPECIFIED'), ('UNSPECIFIED'), ('UNSPECIFIED') ) ;
#378 = PRODUCT ( '19-0408-08_outokumpu', '19-0408-08_outokumpu', '', ( #379 ) ) ;
#379 = MECHANICAL_CONTEXT ( 'NONE', #385, 'mechanical' ) ;
#380 = APPLICATION_PROTOCOL_DEFINITION ( 'international standard', 'config_control_design', 1994, #385 ) ;
#381 = CARTESIAN_POINT ( 'NONE',  ( 0.0000000000000000000, 0.0000000000000000000, 0.0000000000000000000 ) ) ;
#382 = AXIS2_PLACEMENT_3D ( 'NONE', #381, #384, #383 ) ;
#383 = DIRECTION ( 'NONE',  ( 1.000000000000000000, 0.0000000000000000000, 0.0000000000000000000 ) ) ;
#384 = DIRECTION ( 'NONE',  ( 0.0000000000000000000, 0.0000000000000000000, 1.000000000000000000 ) ) ;
#385 = APPLICATION_CONTEXT ( 'configuration controlled 3d designs of mechanical parts and assemblies' ) ;
#386 = SHAPE_DEFINITION_REPRESENTATION ( #333, #387 ) ;
#387 = ADVANCED_BREP_SHAPE_REPRESENTATION ( '19-0408-08_outokumpu', ( #113, #382 ), #388 ) ;
#388 =( GEOMETRIC_REPRESENTATION_CONTEXT ( 3 ) GLOBAL_UNCERTAINTY_ASSIGNED_CONTEXT ( ( #374 ) ) GLOBAL_UNIT_ASSIGNED_CONTEXT ( ( #419, #376, #375 ) ) REPRESENTATION_CONTEXT ( 'NONE', 'WORKASPACE' ) );
#389 = PERSON_AND_ORGANIZATION ( #377, #418 ) ;
#390 = PRODUCT_DEFINITION_FORMATION_WITH_SPECIFIED_SOURCE ( 'ANY', '', #378, .NOT_KNOWN. ) ;
#391 = CC_DESIGN_DATE_AND_TIME_ASSIGNMENT ( #393, #392, ( #411 ) ) ;
#392 = DATE_TIME_ROLE ( 'creation_date' ) ;
#393 = DATE_AND_TIME ( #394, #395 ) ;
#394 = CALENDAR_DATE ( 2015, 11, 8 ) ;
#395 = LOCAL_TIME ( 11, 44, 5.000000000000000000, #396 ) ;
#396 = COORDINATED_UNIVERSAL_TIME_OFFSET ( 1, 0, .AHEAD. ) ;
#397 = CC_DESIGN_PERSON_AND_ORGANIZATION_ASSIGNMENT ( #399, #398, ( #411 ) ) ;
#398 = PERSON_AND_ORGANIZATION_ROLE ( 'creator' ) ;
#399 = PERSON_AND_ORGANIZATION ( #377, #418 ) ;
#400 = CC_DESIGN_APPROVAL ( #408, ( #411 ) ) ;
#401 = APPROVAL_DATE_TIME ( #402, #408 ) ;
#402 = DATE_AND_TIME ( #403, #404 ) ;
#403 = CALENDAR_DATE ( 2015, 11, 8 ) ;
#404 = LOCAL_TIME ( 11, 44, 5.000000000000000000, #405 ) ;
#405 = COORDINATED_UNIVERSAL_TIME_OFFSET ( 1, 0, .AHEAD. ) ;
#406 = APPROVAL_PERSON_ORGANIZATION ( #410, #408, #407 ) ;
#407 = APPROVAL_ROLE ( '' ) ;
#408 = APPROVAL ( #409, 'UNSPECIFIED' ) ;
#409 = APPROVAL_STATUS ( 'not_yet_approved' ) ;
#410 = PERSON_AND_ORGANIZATION ( #377, #418 ) ;
#411 = PRODUCT_DEFINITION ( 'UNKNOWN', '', #390, #412 ) ;
#412 = DESIGN_CONTEXT ( 'detailed design', #414, 'design' ) ;
#413 = APPLICATION_PROTOCOL_DEFINITION ( 'international standard', 'config_control_design', 1994, #414 ) ;
#414 = APPLICATION_CONTEXT ( 'configuration controlled 3d designs of mechanical parts and assemblies' ) ;
#415 = CC_DESIGN_PERSON_AND_ORGANIZATION_ASSIGNMENT ( #417, #416, ( #378 ) ) ;
#416 = PERSON_AND_ORGANIZATION_ROLE ( 'design_owner' ) ;
#417 = PERSON_AND_ORGANIZATION ( #377, #418 ) ;
#418 = ORGANIZATION ( 'UNSPECIFIED', 'UNSPECIFIED', '' ) ;
#419 =( LENGTH_UNIT ( ) NAMED_UNIT ( * ) SI_UNIT ( .MILLI., .METRE. ) );
ENDSEC;
END-ISO-10303-21;
