ISO-10303-21;
HEADER;
/* Generated by software containing ST-Developer
 * from STEP Tools, Inc. (www.steptools.com) 
 */

FILE_DESCRIPTION(
/* description */ (''),
/* implementation_level */ '2;1');

FILE_NAME(
/* name */ 
'C:\\Users\\cad\\Desktop\\Zeichnungen neu von Ralph\\3D_Kupplung_R666-
G\\3D_R666-G-DN10-DN20_17113515.stp',
/* time_stamp */ '2021-06-21T13:58:46+02:00',
/* author */ ('cad'),
/* organization */ (''),
/* preprocessor_version */ 'ST-DEVELOPER v18.1',
/* originating_system */ 'Autodesk Inventor 2022',
/* authorisation */ '');

FILE_SCHEMA (('AUTOMOTIVE_DESIGN { 1 0 10303 214 3 1 1 }'));
ENDSEC;

DATA;
#10=MECHANICAL_DESIGN_GEOMETRIC_PRESENTATION_REPRESENTATION('',(#13),#571);
#11=SHAPE_REPRESENTATION_RELATIONSHIP('SRR','None',#578,#12);
#12=ADVANCED_BREP_SHAPE_REPRESENTATION('',(#14),#570);
#13=STYLED_ITEM('',(#587),#14);
#14=MANIFOLD_SOLID_BREP('Volumenk\X\F6rper1',#308);
#15=TOROIDAL_SURFACE('',#354,10.75,0.5);
#16=FACE_BOUND('',#80,.T.);
#17=FACE_BOUND('',#83,.T.);
#18=CONICAL_SURFACE('',#340,10.1,0.785398163397448);
#19=CONICAL_SURFACE('',#342,7.625,0.785398163397452);
#20=CONICAL_SURFACE('',#350,10.1,0.785398163397448);
#21=CONICAL_SURFACE('',#358,10.925,0.732815101786507);
#22=CONICAL_SURFACE('',#361,8.025,0.785398163397447);
#23=CONICAL_SURFACE('',#362,12.4,0.785398163397449);
#24=CONICAL_SURFACE('',#368,12.4,0.785398163397449);
#25=CIRCLE('',#335,10.25);
#26=CIRCLE('',#336,10.25);
#27=CIRCLE('',#337,10.25);
#28=CIRCLE('',#338,10.25);
#29=CIRCLE('',#339,10.25);
#30=CIRCLE('',#341,9.94999999999999);
#31=CIRCLE('',#343,7.775);
#32=CIRCLE('',#344,7.475);
#33=CIRCLE('',#346,7.475);
#34=CIRCLE('',#347,7.475);
#35=CIRCLE('',#349,11.6);
#36=CIRCLE('',#351,9.94999999999999);
#37=CIRCLE('',#353,8.575);
#38=CIRCLE('',#355,0.5);
#39=CIRCLE('',#356,10.3783529268764);
#40=CIRCLE('',#357,10.3783529268764);
#41=CIRCLE('',#359,11.6);
#42=CIRCLE('',#360,11.6);
#43=CIRCLE('',#363,13.2);
#44=CIRCLE('',#364,13.2);
#45=CIRCLE('',#366,13.2);
#46=CIRCLE('',#367,13.2);
#47=CYLINDRICAL_SURFACE('',#334,10.25);
#48=CYLINDRICAL_SURFACE('',#345,7.475);
#49=CYLINDRICAL_SURFACE('',#365,13.2);
#50=(
BOUNDED_CURVE()
B_SPLINE_CURVE(2,(#479,#480,#481),.UNSPECIFIED.,.F.,.F.)
B_SPLINE_CURVE_WITH_KNOTS((3,3),(0.,0.0939572614803477),.UNSPECIFIED.)
CURVE()
GEOMETRIC_REPRESENTATION_ITEM()
RATIONAL_B_SPLINE_CURVE((1.,1.00097255316207,1.))
REPRESENTATION_ITEM('')
);
#51=(
BOUNDED_CURVE()
B_SPLINE_CURVE(2,(#485,#486,#487),.UNSPECIFIED.,.F.,.F.)
B_SPLINE_CURVE_WITH_KNOTS((3,3),(0.,0.0939572614803477),.UNSPECIFIED.)
CURVE()
GEOMETRIC_REPRESENTATION_ITEM()
RATIONAL_B_SPLINE_CURVE((1.,1.00097255316185,1.))
REPRESENTATION_ITEM('')
);
#52=(
BOUNDED_CURVE()
B_SPLINE_CURVE(2,(#498,#499,#500),.UNSPECIFIED.,.F.,.F.)
B_SPLINE_CURVE_WITH_KNOTS((3,3),(0.,0.0939572614803477),.UNSPECIFIED.)
CURVE()
GEOMETRIC_REPRESENTATION_ITEM()
RATIONAL_B_SPLINE_CURVE((1.,1.00097255316212,1.))
REPRESENTATION_ITEM('')
);
#53=(
BOUNDED_CURVE()
B_SPLINE_CURVE(2,(#504,#505,#506),.UNSPECIFIED.,.F.,.F.)
B_SPLINE_CURVE_WITH_KNOTS((3,3),(0.,0.0939572614803477),.UNSPECIFIED.)
CURVE()
GEOMETRIC_REPRESENTATION_ITEM()
RATIONAL_B_SPLINE_CURVE((1.,1.00097255316212,1.))
REPRESENTATION_ITEM('')
);
#54=FACE_OUTER_BOUND('',#71,.T.);
#55=FACE_OUTER_BOUND('',#72,.T.);
#56=FACE_OUTER_BOUND('',#73,.T.);
#57=FACE_OUTER_BOUND('',#74,.T.);
#58=FACE_OUTER_BOUND('',#75,.T.);
#59=FACE_OUTER_BOUND('',#76,.T.);
#60=FACE_OUTER_BOUND('',#77,.T.);
#61=FACE_OUTER_BOUND('',#78,.T.);
#62=FACE_OUTER_BOUND('',#79,.T.);
#63=FACE_OUTER_BOUND('',#81,.T.);
#64=FACE_OUTER_BOUND('',#82,.T.);
#65=FACE_OUTER_BOUND('',#84,.T.);
#66=FACE_OUTER_BOUND('',#85,.T.);
#67=FACE_OUTER_BOUND('',#86,.T.);
#68=FACE_OUTER_BOUND('',#87,.T.);
#69=FACE_OUTER_BOUND('',#88,.T.);
#70=FACE_OUTER_BOUND('',#89,.T.);
#71=EDGE_LOOP('',(#197,#198));
#72=EDGE_LOOP('',(#199,#200,#201,#202,#203,#204));
#73=EDGE_LOOP('',(#205,#206));
#74=EDGE_LOOP('',(#207,#208,#209,#210,#211,#212));
#75=EDGE_LOOP('',(#213,#214,#215,#216,#217,#218,#219,#220,#221,#222,#223,
#224,#225));
#76=EDGE_LOOP('',(#226,#227,#228,#229,#230));
#77=EDGE_LOOP('',(#231,#232,#233,#234));
#78=EDGE_LOOP('',(#235,#236,#237,#238,#239));
#79=EDGE_LOOP('',(#240));
#80=EDGE_LOOP('',(#241));
#81=EDGE_LOOP('',(#242,#243,#244,#245));
#82=EDGE_LOOP('',(#246,#247,#248,#249));
#83=EDGE_LOOP('',(#250));
#84=EDGE_LOOP('',(#251,#252,#253,#254,#255,#256));
#85=EDGE_LOOP('',(#257,#258,#259,#260,#261,#262));
#86=EDGE_LOOP('',(#263,#264,#265,#266,#267));
#87=EDGE_LOOP('',(#268,#269,#270,#271,#272,#273));
#88=EDGE_LOOP('',(#274,#275,#276,#277,#278,#279));
#89=EDGE_LOOP('',(#280,#281,#282,#283,#284));
#90=LINE('',#474,#106);
#91=LINE('',#477,#107);
#92=LINE('',#483,#108);
#93=LINE('',#488,#109);
#94=LINE('',#493,#110);
#95=LINE('',#496,#111);
#96=LINE('',#502,#112);
#97=LINE('',#507,#113);
#98=LINE('',#513,#114);
#99=LINE('',#524,#115);
#100=LINE('',#531,#116);
#101=LINE('',#551,#117);
#102=LINE('',#553,#118);
#103=LINE('',#559,#119);
#104=LINE('',#565,#120);
#105=LINE('',#567,#121);
#106=VECTOR('',#375,10.);
#107=VECTOR('',#378,10.);
#108=VECTOR('',#379,10.);
#109=VECTOR('',#380,10.);
#110=VECTOR('',#385,10.);
#111=VECTOR('',#388,10.);
#112=VECTOR('',#389,10.);
#113=VECTOR('',#390,10.);
#114=VECTOR('',#395,10.25);
#115=VECTOR('',#412,7.625);
#116=VECTOR('',#421,7.475);
#117=VECTOR('',#448,10.925);
#118=VECTOR('',#451,8.025);
#119=VECTOR('',#458,12.4);
#120=VECTOR('',#465,13.2);
#121=VECTOR('',#468,12.4);
#122=ELLIPSE('',#329,14.4956890143242,10.25);
#123=ELLIPSE('',#332,14.4956890143242,10.25);
#124=VERTEX_POINT('',#471);
#125=VERTEX_POINT('',#472);
#126=VERTEX_POINT('',#476);
#127=VERTEX_POINT('',#478);
#128=VERTEX_POINT('',#482);
#129=VERTEX_POINT('',#484);
#130=VERTEX_POINT('',#490);
#131=VERTEX_POINT('',#491);
#132=VERTEX_POINT('',#495);
#133=VERTEX_POINT('',#497);
#134=VERTEX_POINT('',#501);
#135=VERTEX_POINT('',#503);
#136=VERTEX_POINT('',#509);
#137=VERTEX_POINT('',#510);
#138=VERTEX_POINT('',#512);
#139=VERTEX_POINT('',#521);
#140=VERTEX_POINT('',#523);
#141=VERTEX_POINT('',#527);
#142=VERTEX_POINT('',#528);
#143=VERTEX_POINT('',#533);
#144=VERTEX_POINT('',#538);
#145=VERTEX_POINT('',#541);
#146=VERTEX_POINT('',#543);
#147=VERTEX_POINT('',#547);
#148=VERTEX_POINT('',#548);
#149=VERTEX_POINT('',#555);
#150=VERTEX_POINT('',#556);
#151=VERTEX_POINT('',#561);
#152=VERTEX_POINT('',#562);
#153=EDGE_CURVE('',#124,#125,#122,.T.);
#154=EDGE_CURVE('',#125,#124,#90,.T.);
#155=EDGE_CURVE('',#126,#124,#91,.T.);
#156=EDGE_CURVE('',#127,#126,#50,.T.);
#157=EDGE_CURVE('',#128,#127,#92,.T.);
#158=EDGE_CURVE('',#129,#128,#51,.T.);
#159=EDGE_CURVE('',#125,#129,#93,.T.);
#160=EDGE_CURVE('',#130,#131,#123,.T.);
#161=EDGE_CURVE('',#131,#130,#94,.T.);
#162=EDGE_CURVE('',#132,#130,#95,.T.);
#163=EDGE_CURVE('',#133,#132,#52,.T.);
#164=EDGE_CURVE('',#134,#133,#96,.T.);
#165=EDGE_CURVE('',#135,#134,#53,.T.);
#166=EDGE_CURVE('',#131,#135,#97,.T.);
#167=EDGE_CURVE('',#136,#137,#25,.T.);
#168=EDGE_CURVE('',#136,#138,#98,.T.);
#169=EDGE_CURVE('',#132,#138,#26,.T.);
#170=EDGE_CURVE('',#126,#135,#27,.T.);
#171=EDGE_CURVE('',#138,#129,#28,.T.);
#172=EDGE_CURVE('',#137,#136,#29,.T.);
#173=EDGE_CURVE('',#128,#133,#30,.T.);
#174=EDGE_CURVE('',#139,#139,#31,.T.);
#175=EDGE_CURVE('',#139,#140,#99,.T.);
#176=EDGE_CURVE('',#140,#140,#32,.T.);
#177=EDGE_CURVE('',#141,#142,#33,.T.);
#178=EDGE_CURVE('',#142,#141,#34,.T.);
#179=EDGE_CURVE('',#142,#140,#100,.T.);
#180=EDGE_CURVE('',#143,#143,#35,.T.);
#181=EDGE_CURVE('',#134,#127,#36,.T.);
#182=EDGE_CURVE('',#144,#144,#37,.T.);
#183=EDGE_CURVE('',#137,#145,#38,.T.);
#184=EDGE_CURVE('',#145,#146,#39,.T.);
#185=EDGE_CURVE('',#146,#145,#40,.T.);
#186=EDGE_CURVE('',#147,#148,#41,.T.);
#187=EDGE_CURVE('',#148,#147,#42,.T.);
#188=EDGE_CURVE('',#148,#146,#101,.T.);
#189=EDGE_CURVE('',#144,#141,#102,.T.);
#190=EDGE_CURVE('',#149,#150,#43,.T.);
#191=EDGE_CURVE('',#150,#149,#44,.T.);
#192=EDGE_CURVE('',#149,#147,#103,.T.);
#193=EDGE_CURVE('',#151,#152,#45,.T.);
#194=EDGE_CURVE('',#152,#151,#46,.T.);
#195=EDGE_CURVE('',#152,#150,#104,.T.);
#196=EDGE_CURVE('',#143,#151,#105,.T.);
#197=ORIENTED_EDGE('',*,*,#153,.F.);
#198=ORIENTED_EDGE('',*,*,#154,.F.);
#199=ORIENTED_EDGE('',*,*,#155,.F.);
#200=ORIENTED_EDGE('',*,*,#156,.F.);
#201=ORIENTED_EDGE('',*,*,#157,.F.);
#202=ORIENTED_EDGE('',*,*,#158,.F.);
#203=ORIENTED_EDGE('',*,*,#159,.F.);
#204=ORIENTED_EDGE('',*,*,#154,.T.);
#205=ORIENTED_EDGE('',*,*,#160,.F.);
#206=ORIENTED_EDGE('',*,*,#161,.F.);
#207=ORIENTED_EDGE('',*,*,#162,.F.);
#208=ORIENTED_EDGE('',*,*,#163,.F.);
#209=ORIENTED_EDGE('',*,*,#164,.F.);
#210=ORIENTED_EDGE('',*,*,#165,.F.);
#211=ORIENTED_EDGE('',*,*,#166,.F.);
#212=ORIENTED_EDGE('',*,*,#161,.T.);
#213=ORIENTED_EDGE('',*,*,#167,.F.);
#214=ORIENTED_EDGE('',*,*,#168,.T.);
#215=ORIENTED_EDGE('',*,*,#169,.F.);
#216=ORIENTED_EDGE('',*,*,#162,.T.);
#217=ORIENTED_EDGE('',*,*,#160,.T.);
#218=ORIENTED_EDGE('',*,*,#166,.T.);
#219=ORIENTED_EDGE('',*,*,#170,.F.);
#220=ORIENTED_EDGE('',*,*,#155,.T.);
#221=ORIENTED_EDGE('',*,*,#153,.T.);
#222=ORIENTED_EDGE('',*,*,#159,.T.);
#223=ORIENTED_EDGE('',*,*,#171,.F.);
#224=ORIENTED_EDGE('',*,*,#168,.F.);
#225=ORIENTED_EDGE('',*,*,#172,.F.);
#226=ORIENTED_EDGE('',*,*,#158,.T.);
#227=ORIENTED_EDGE('',*,*,#173,.T.);
#228=ORIENTED_EDGE('',*,*,#163,.T.);
#229=ORIENTED_EDGE('',*,*,#169,.T.);
#230=ORIENTED_EDGE('',*,*,#171,.T.);
#231=ORIENTED_EDGE('',*,*,#174,.T.);
#232=ORIENTED_EDGE('',*,*,#175,.T.);
#233=ORIENTED_EDGE('',*,*,#176,.T.);
#234=ORIENTED_EDGE('',*,*,#175,.F.);
#235=ORIENTED_EDGE('',*,*,#177,.F.);
#236=ORIENTED_EDGE('',*,*,#178,.F.);
#237=ORIENTED_EDGE('',*,*,#179,.T.);
#238=ORIENTED_EDGE('',*,*,#176,.F.);
#239=ORIENTED_EDGE('',*,*,#179,.F.);
#240=ORIENTED_EDGE('',*,*,#180,.F.);
#241=ORIENTED_EDGE('',*,*,#174,.F.);
#242=ORIENTED_EDGE('',*,*,#156,.T.);
#243=ORIENTED_EDGE('',*,*,#170,.T.);
#244=ORIENTED_EDGE('',*,*,#165,.T.);
#245=ORIENTED_EDGE('',*,*,#181,.T.);
#246=ORIENTED_EDGE('',*,*,#157,.T.);
#247=ORIENTED_EDGE('',*,*,#181,.F.);
#248=ORIENTED_EDGE('',*,*,#164,.T.);
#249=ORIENTED_EDGE('',*,*,#173,.F.);
#250=ORIENTED_EDGE('',*,*,#182,.F.);
#251=ORIENTED_EDGE('',*,*,#167,.T.);
#252=ORIENTED_EDGE('',*,*,#183,.T.);
#253=ORIENTED_EDGE('',*,*,#184,.T.);
#254=ORIENTED_EDGE('',*,*,#185,.T.);
#255=ORIENTED_EDGE('',*,*,#183,.F.);
#256=ORIENTED_EDGE('',*,*,#172,.T.);
#257=ORIENTED_EDGE('',*,*,#186,.F.);
#258=ORIENTED_EDGE('',*,*,#187,.F.);
#259=ORIENTED_EDGE('',*,*,#188,.T.);
#260=ORIENTED_EDGE('',*,*,#184,.F.);
#261=ORIENTED_EDGE('',*,*,#185,.F.);
#262=ORIENTED_EDGE('',*,*,#188,.F.);
#263=ORIENTED_EDGE('',*,*,#182,.T.);
#264=ORIENTED_EDGE('',*,*,#189,.T.);
#265=ORIENTED_EDGE('',*,*,#177,.T.);
#266=ORIENTED_EDGE('',*,*,#178,.T.);
#267=ORIENTED_EDGE('',*,*,#189,.F.);
#268=ORIENTED_EDGE('',*,*,#190,.T.);
#269=ORIENTED_EDGE('',*,*,#191,.T.);
#270=ORIENTED_EDGE('',*,*,#192,.T.);
#271=ORIENTED_EDGE('',*,*,#186,.T.);
#272=ORIENTED_EDGE('',*,*,#187,.T.);
#273=ORIENTED_EDGE('',*,*,#192,.F.);
#274=ORIENTED_EDGE('',*,*,#193,.F.);
#275=ORIENTED_EDGE('',*,*,#194,.F.);
#276=ORIENTED_EDGE('',*,*,#195,.T.);
#277=ORIENTED_EDGE('',*,*,#190,.F.);
#278=ORIENTED_EDGE('',*,*,#191,.F.);
#279=ORIENTED_EDGE('',*,*,#195,.F.);
#280=ORIENTED_EDGE('',*,*,#180,.T.);
#281=ORIENTED_EDGE('',*,*,#196,.T.);
#282=ORIENTED_EDGE('',*,*,#193,.T.);
#283=ORIENTED_EDGE('',*,*,#194,.T.);
#284=ORIENTED_EDGE('',*,*,#196,.F.);
#285=PLANE('',#328);
#286=PLANE('',#330);
#287=PLANE('',#331);
#288=PLANE('',#333);
#289=PLANE('',#348);
#290=PLANE('',#352);
#291=ADVANCED_FACE('',(#54),#285,.F.);
#292=ADVANCED_FACE('',(#55),#286,.F.);
#293=ADVANCED_FACE('',(#56),#287,.F.);
#294=ADVANCED_FACE('',(#57),#288,.F.);
#295=ADVANCED_FACE('',(#58),#47,.T.);
#296=ADVANCED_FACE('',(#59),#18,.T.);
#297=ADVANCED_FACE('',(#60),#19,.F.);
#298=ADVANCED_FACE('',(#61),#48,.F.);
#299=ADVANCED_FACE('',(#62,#16),#289,.T.);
#300=ADVANCED_FACE('',(#63),#20,.T.);
#301=ADVANCED_FACE('',(#64,#17),#290,.T.);
#302=ADVANCED_FACE('',(#65),#15,.F.);
#303=ADVANCED_FACE('',(#66),#21,.T.);
#304=ADVANCED_FACE('',(#67),#22,.F.);
#305=ADVANCED_FACE('',(#68),#23,.T.);
#306=ADVANCED_FACE('',(#69),#49,.T.);
#307=ADVANCED_FACE('',(#70),#24,.T.);
#308=CLOSED_SHELL('',(#291,#292,#293,#294,#295,#296,#297,#298,#299,#300,
#301,#302,#303,#304,#305,#306,#307));
#309=DERIVED_UNIT_ELEMENT(#311,1.);
#310=DERIVED_UNIT_ELEMENT(#573,-3.);
#311=(
MASS_UNIT()
NAMED_UNIT(*)
SI_UNIT($,.GRAM.)
);
#312=DERIVED_UNIT((#309,#310));
#313=MEASURE_REPRESENTATION_ITEM('density measure',
POSITIVE_RATIO_MEASURE(1.),#312);
#314=PROPERTY_DEFINITION_REPRESENTATION(#319,#316);
#315=PROPERTY_DEFINITION_REPRESENTATION(#320,#317);
#316=REPRESENTATION('material name',(#318),#570);
#317=REPRESENTATION('density',(#313),#570);
#318=DESCRIPTIVE_REPRESENTATION_ITEM('Generisch','Generisch');
#319=PROPERTY_DEFINITION('material property','material name',#580);
#320=PROPERTY_DEFINITION('material property','density of part',#580);
#321=DATE_TIME_ROLE('creation_date');
#322=APPLIED_DATE_AND_TIME_ASSIGNMENT(#323,#321,(#580));
#323=DATE_AND_TIME(#324,#325);
#324=CALENDAR_DATE(2021,21,6);
#325=LOCAL_TIME(0,0,0.,#326);
#326=COORDINATED_UNIVERSAL_TIME_OFFSET(0,0,.BEHIND.);
#327=AXIS2_PLACEMENT_3D('placement',#469,#369,#370);
#328=AXIS2_PLACEMENT_3D('',#470,#371,#372);
#329=AXIS2_PLACEMENT_3D('',#473,#373,#374);
#330=AXIS2_PLACEMENT_3D('',#475,#376,#377);
#331=AXIS2_PLACEMENT_3D('',#489,#381,#382);
#332=AXIS2_PLACEMENT_3D('',#492,#383,#384);
#333=AXIS2_PLACEMENT_3D('',#494,#386,#387);
#334=AXIS2_PLACEMENT_3D('',#508,#391,#392);
#335=AXIS2_PLACEMENT_3D('',#511,#393,#394);
#336=AXIS2_PLACEMENT_3D('',#514,#396,#397);
#337=AXIS2_PLACEMENT_3D('',#515,#398,#399);
#338=AXIS2_PLACEMENT_3D('',#516,#400,#401);
#339=AXIS2_PLACEMENT_3D('',#517,#402,#403);
#340=AXIS2_PLACEMENT_3D('',#518,#404,#405);
#341=AXIS2_PLACEMENT_3D('',#519,#406,#407);
#342=AXIS2_PLACEMENT_3D('',#520,#408,#409);
#343=AXIS2_PLACEMENT_3D('',#522,#410,#411);
#344=AXIS2_PLACEMENT_3D('',#525,#413,#414);
#345=AXIS2_PLACEMENT_3D('',#526,#415,#416);
#346=AXIS2_PLACEMENT_3D('',#529,#417,#418);
#347=AXIS2_PLACEMENT_3D('',#530,#419,#420);
#348=AXIS2_PLACEMENT_3D('',#532,#422,#423);
#349=AXIS2_PLACEMENT_3D('',#534,#424,#425);
#350=AXIS2_PLACEMENT_3D('',#535,#426,#427);
#351=AXIS2_PLACEMENT_3D('',#536,#428,#429);
#352=AXIS2_PLACEMENT_3D('',#537,#430,#431);
#353=AXIS2_PLACEMENT_3D('',#539,#432,#433);
#354=AXIS2_PLACEMENT_3D('',#540,#434,#435);
#355=AXIS2_PLACEMENT_3D('',#542,#436,#437);
#356=AXIS2_PLACEMENT_3D('',#544,#438,#439);
#357=AXIS2_PLACEMENT_3D('',#545,#440,#441);
#358=AXIS2_PLACEMENT_3D('',#546,#442,#443);
#359=AXIS2_PLACEMENT_3D('',#549,#444,#445);
#360=AXIS2_PLACEMENT_3D('',#550,#446,#447);
#361=AXIS2_PLACEMENT_3D('',#552,#449,#450);
#362=AXIS2_PLACEMENT_3D('',#554,#452,#453);
#363=AXIS2_PLACEMENT_3D('',#557,#454,#455);
#364=AXIS2_PLACEMENT_3D('',#558,#456,#457);
#365=AXIS2_PLACEMENT_3D('',#560,#459,#460);
#366=AXIS2_PLACEMENT_3D('',#563,#461,#462);
#367=AXIS2_PLACEMENT_3D('',#564,#463,#464);
#368=AXIS2_PLACEMENT_3D('',#566,#466,#467);
#369=DIRECTION('axis',(0.,0.,1.));
#370=DIRECTION('refdir',(1.,0.,0.));
#371=DIRECTION('center_axis',(0.707106781186548,4.72466231798137E-17,-0.707106781186548));
#372=DIRECTION('ref_axis',(-0.707106781186548,-1.95701920974099E-17,-0.707106781186548));
#373=DIRECTION('center_axis',(0.707106781186548,4.72466231798137E-17,-0.707106781186548));
#374=DIRECTION('ref_axis',(0.707106781186547,0.,0.707106781186547));
#375=DIRECTION('',(0.,1.,6.68168152772236E-17));
#376=DIRECTION('center_axis',(0.,6.68168152772236E-17,-1.));
#377=DIRECTION('ref_axis',(0.,1.,6.68168152772236E-17));
#378=DIRECTION('',(1.,0.,0.));
#379=DIRECTION('',(0.,1.,6.68168152772236E-17));
#380=DIRECTION('',(-1.,0.,0.));
#381=DIRECTION('center_axis',(0.707106781186548,0.,0.707106781186548));
#382=DIRECTION('ref_axis',(0.707106781186548,0.,-0.707106781186548));
#383=DIRECTION('center_axis',(0.707106781186548,0.,0.707106781186548));
#384=DIRECTION('ref_axis',(-0.707106781186547,0.,0.707106781186547));
#385=DIRECTION('',(0.,-1.,0.));
#386=DIRECTION('center_axis',(0.,0.,1.));
#387=DIRECTION('ref_axis',(0.,-1.,0.));
#388=DIRECTION('',(1.,0.,0.));
#389=DIRECTION('',(0.,-1.,0.));
#390=DIRECTION('',(-1.,0.,0.));
#391=DIRECTION('center_axis',(1.,0.,0.));
#392=DIRECTION('ref_axis',(0.,1.,0.));
#393=DIRECTION('center_axis',(1.,0.,0.));
#394=DIRECTION('ref_axis',(0.,-1.,1.83697019872103E-16));
#395=DIRECTION('',(-1.,0.,0.));
#396=DIRECTION('center_axis',(-1.,0.,0.));
#397=DIRECTION('ref_axis',(0.,-1.,0.));
#398=DIRECTION('center_axis',(-1.,0.,0.));
#399=DIRECTION('ref_axis',(0.,-1.,0.));
#400=DIRECTION('center_axis',(-1.,0.,0.));
#401=DIRECTION('ref_axis',(0.,-1.,0.));
#402=DIRECTION('center_axis',(1.,0.,0.));
#403=DIRECTION('ref_axis',(0.,-1.,1.83697019872103E-16));
#404=DIRECTION('center_axis',(1.,0.,0.));
#405=DIRECTION('ref_axis',(0.,-1.,0.));
#406=DIRECTION('center_axis',(1.,0.,0.));
#407=DIRECTION('ref_axis',(0.,-1.,0.));
#408=DIRECTION('center_axis',(1.,0.,0.));
#409=DIRECTION('ref_axis',(0.,0.,1.));
#410=DIRECTION('center_axis',(1.,0.,0.));
#411=DIRECTION('ref_axis',(0.,0.,1.));
#412=DIRECTION('',(-0.707106781186545,-8.65956056235496E-17,0.70710678118655));
#413=DIRECTION('center_axis',(-1.,0.,0.));
#414=DIRECTION('ref_axis',(0.,0.,1.));
#415=DIRECTION('center_axis',(-1.,0.,0.));
#416=DIRECTION('ref_axis',(0.,0.,1.));
#417=DIRECTION('center_axis',(1.,0.,0.));
#418=DIRECTION('ref_axis',(0.,0.,-1.));
#419=DIRECTION('center_axis',(1.,0.,0.));
#420=DIRECTION('ref_axis',(0.,0.,-1.));
#421=DIRECTION('',(1.,0.,0.));
#422=DIRECTION('center_axis',(1.,0.,0.));
#423=DIRECTION('ref_axis',(0.,0.,-1.));
#424=DIRECTION('center_axis',(-1.,0.,0.));
#425=DIRECTION('ref_axis',(0.,-1.,0.));
#426=DIRECTION('center_axis',(1.,0.,0.));
#427=DIRECTION('ref_axis',(0.,1.,1.22464679914735E-16));
#428=DIRECTION('center_axis',(1.,0.,0.));
#429=DIRECTION('ref_axis',(0.,-1.,0.));
#430=DIRECTION('center_axis',(-1.,0.,0.));
#431=DIRECTION('ref_axis',(0.,0.,1.));
#432=DIRECTION('center_axis',(-1.,0.,0.));
#433=DIRECTION('ref_axis',(0.,0.,-1.));
#434=DIRECTION('center_axis',(1.,0.,0.));
#435=DIRECTION('ref_axis',(0.,0.,-1.));
#436=DIRECTION('center_axis',(0.,-1.,-1.22464679914735E-16));
#437=DIRECTION('ref_axis',(0.,-1.22464679914735E-16,1.));
#438=DIRECTION('center_axis',(-1.,0.,0.));
#439=DIRECTION('ref_axis',(0.,-1.,3.06161699786838E-17));
#440=DIRECTION('center_axis',(-1.,0.,0.));
#441=DIRECTION('ref_axis',(0.,-1.,3.06161699786838E-17));
#442=DIRECTION('center_axis',(1.,0.,0.));
#443=DIRECTION('ref_axis',(0.,1.,0.));
#444=DIRECTION('center_axis',(1.,0.,0.));
#445=DIRECTION('ref_axis',(0.,0.,-1.));
#446=DIRECTION('center_axis',(1.,0.,0.));
#447=DIRECTION('ref_axis',(0.,0.,-1.));
#448=DIRECTION('',(-0.743294146247166,0.66896473162245,8.19245517323901E-17));
#449=DIRECTION('center_axis',(-1.,0.,0.));
#450=DIRECTION('ref_axis',(0.,0.,-1.));
#451=DIRECTION('',(0.707106781186549,-8.65956056235492E-17,-0.707106781186547));
#452=DIRECTION('center_axis',(1.,0.,0.));
#453=DIRECTION('ref_axis',(0.,-1.,0.));
#454=DIRECTION('center_axis',(-1.,0.,0.));
#455=DIRECTION('ref_axis',(0.,-1.,0.));
#456=DIRECTION('center_axis',(-1.,0.,0.));
#457=DIRECTION('ref_axis',(0.,-1.,0.));
#458=DIRECTION('',(-0.707106781186547,-0.707106781186548,-8.65956056235493E-17));
#459=DIRECTION('center_axis',(1.,0.,0.));
#460=DIRECTION('ref_axis',(0.,1.,0.));
#461=DIRECTION('center_axis',(1.,0.,0.));
#462=DIRECTION('ref_axis',(0.,-1.,0.));
#463=DIRECTION('center_axis',(1.,0.,0.));
#464=DIRECTION('ref_axis',(0.,-1.,0.));
#465=DIRECTION('',(-1.,0.,0.));
#466=DIRECTION('center_axis',(-1.,0.,0.));
#467=DIRECTION('ref_axis',(0.,-1.,0.));
#468=DIRECTION('',(-0.707106781186547,0.707106781186548,8.65956056235493E-17));
#469=CARTESIAN_POINT('',(0.,0.,0.));
#470=CARTESIAN_POINT('Origin',(-9.98046700201243,0.326751571459542,11.5195329979876));
#471=CARTESIAN_POINT('',(-12.,3.84870107958514,9.5));
#472=CARTESIAN_POINT('',(-12.,-3.84870107958514,9.5));
#473=CARTESIAN_POINT('Origin',(-21.5,0.,0.));
#474=CARTESIAN_POINT('',(-12.,16.9426740756799,9.5));
#475=CARTESIAN_POINT('Origin',(-19.,-16.2891709327608,9.5));
#476=CARTESIAN_POINT('',(-18.7,3.84870107958514,9.5));
#477=CARTESIAN_POINT('',(-14.25,3.84870107958514,9.5));
#478=CARTESIAN_POINT('',(-19.,2.95846243849737,9.5));
#479=CARTESIAN_POINT('Ctrl Pts',(-19.,2.95846243849737,9.5));
#480=CARTESIAN_POINT('Ctrl Pts',(-18.8696169514378,3.39697107606287,9.5));
#481=CARTESIAN_POINT('Ctrl Pts',(-18.7,3.84870107958514,9.5));
#482=CARTESIAN_POINT('',(-19.,-2.95846243849737,9.5));
#483=CARTESIAN_POINT('',(-19.,-3.01958546638043,9.5));
#484=CARTESIAN_POINT('',(-18.7,-3.84870107958514,9.5));
#485=CARTESIAN_POINT('Ctrl Pts',(-18.7,-3.84870107958514,9.5));
#486=CARTESIAN_POINT('Ctrl Pts',(-18.8696169514378,-3.39697107606285,9.5));
#487=CARTESIAN_POINT('Ctrl Pts',(-19.,-2.95846243849737,9.5));
#488=CARTESIAN_POINT('',(-14.25,-3.84870107958514,9.5));
#489=CARTESIAN_POINT('Origin',(-8.69686552024068,0.326751571459543,-12.8031344797593));
#490=CARTESIAN_POINT('',(-12.,-3.84870107958514,-9.5));
#491=CARTESIAN_POINT('',(-12.,3.84870107958514,-9.5));
#492=CARTESIAN_POINT('Origin',(-21.5,0.,0.));
#493=CARTESIAN_POINT('',(-12.,-16.2891709327608,-9.5));
#494=CARTESIAN_POINT('Origin',(-19.,16.9426740756799,-9.5));
#495=CARTESIAN_POINT('',(-18.7,-3.84870107958514,-9.5));
#496=CARTESIAN_POINT('',(-14.25,-3.84870107958514,-9.5));
#497=CARTESIAN_POINT('',(-19.,-2.95846243849737,-9.5));
#498=CARTESIAN_POINT('Ctrl Pts',(-19.,-2.95846243849737,-9.5));
#499=CARTESIAN_POINT('Ctrl Pts',(-18.8696169514378,-3.39697107606285,-9.5));
#500=CARTESIAN_POINT('Ctrl Pts',(-18.7,-3.84870107958514,-9.5));
#501=CARTESIAN_POINT('',(-19.,2.95846243849737,-9.5));
#502=CARTESIAN_POINT('',(-19.,13.59633703784,-9.5));
#503=CARTESIAN_POINT('',(-18.7,3.84870107958514,-9.5));
#504=CARTESIAN_POINT('Ctrl Pts',(-18.7,3.84870107958514,-9.5));
#505=CARTESIAN_POINT('Ctrl Pts',(-18.8696169514378,3.39697107606285,-9.5));
#506=CARTESIAN_POINT('Ctrl Pts',(-19.,2.95846243849737,-9.5));
#507=CARTESIAN_POINT('',(-14.25,3.84870107958514,-9.5));
#508=CARTESIAN_POINT('Origin',(-14.25,0.,0.));
#509=CARTESIAN_POINT('',(-9.69186800261521,-10.25,-1.25526296912604E-15));
#510=CARTESIAN_POINT('',(-9.69186800261521,-1.25526296912604E-15,10.25));
#511=CARTESIAN_POINT('Origin',(-9.69186800261521,0.,0.));
#512=CARTESIAN_POINT('',(-18.7,-10.25,-1.25526296912604E-15));
#513=CARTESIAN_POINT('',(-14.25,-10.25,-1.25526296912604E-15));
#514=CARTESIAN_POINT('Origin',(-18.7,0.,0.));
#515=CARTESIAN_POINT('Origin',(-18.7,0.,0.));
#516=CARTESIAN_POINT('Origin',(-18.7,0.,0.));
#517=CARTESIAN_POINT('Origin',(-9.69186800261521,0.,0.));
#518=CARTESIAN_POINT('Origin',(-18.85,0.,0.));
#519=CARTESIAN_POINT('Origin',(-19.,0.,0.));
#520=CARTESIAN_POINT('Origin',(-0.149999999999999,0.,0.));
#521=CARTESIAN_POINT('',(0.,9.52162886337067E-16,-7.775));
#522=CARTESIAN_POINT('Origin',(0.,0.,0.));
#523=CARTESIAN_POINT('',(-0.299999999999998,-9.15423482362646E-16,-7.475));
#524=CARTESIAN_POINT('',(-0.149999999999999,9.33793184349857E-16,-7.625));
#525=CARTESIAN_POINT('Origin',(-0.299999999999998,0.,0.));
#526=CARTESIAN_POINT('Origin',(22.8917653005934,0.,0.));
#527=CARTESIAN_POINT('',(-17.9,-9.15423482362646E-16,7.475));
#528=CARTESIAN_POINT('',(-17.9,-9.15423482362646E-16,-7.475));
#529=CARTESIAN_POINT('Origin',(-17.9,0.,0.));
#530=CARTESIAN_POINT('Origin',(-17.9,0.,0.));
#531=CARTESIAN_POINT('',(22.8917653005934,-9.15423482362646E-16,-7.475));
#532=CARTESIAN_POINT('Origin',(0.,0.,0.));
#533=CARTESIAN_POINT('',(0.,11.6,-1.42059028701093E-15));
#534=CARTESIAN_POINT('Origin',(0.,0.,0.));
#535=CARTESIAN_POINT('Origin',(-18.85,0.,0.));
#536=CARTESIAN_POINT('Origin',(-19.,0.,0.));
#537=CARTESIAN_POINT('Origin',(-19.,10.25,0.));
#538=CARTESIAN_POINT('',(-19.,1.05013463026886E-15,8.575));
#539=CARTESIAN_POINT('Origin',(-19.,0.,0.));
#540=CARTESIAN_POINT('Origin',(-9.69186800261521,0.,0.));
#541=CARTESIAN_POINT('',(-9.35738563680399,-1.27098166923208E-15,10.3783529268764));
#542=CARTESIAN_POINT('Origin',(-9.69186800261521,-1.3164953090834E-15,10.75));
#543=CARTESIAN_POINT('',(-9.35738563680399,-10.3783529268764,-1.27098166923208E-15));
#544=CARTESIAN_POINT('Origin',(-9.35738563680399,0.,-1.5887270865401E-15));
#545=CARTESIAN_POINT('Origin',(-9.35738563680399,0.,-1.5887270865401E-15));
#546=CARTESIAN_POINT('Origin',(-8.75,0.,0.));
#547=CARTESIAN_POINT('',(-8.,11.6,0.));
#548=CARTESIAN_POINT('',(-8.,-11.6,-1.42059028701093E-15));
#549=CARTESIAN_POINT('Origin',(-8.,0.,0.));
#550=CARTESIAN_POINT('Origin',(-8.,0.,0.));
#551=CARTESIAN_POINT('',(-8.75,-10.925,-1.33792662806848E-15));
#552=CARTESIAN_POINT('Origin',(-18.45,0.,0.));
#553=CARTESIAN_POINT('',(-18.45,9.82779056315751E-16,8.025));
#554=CARTESIAN_POINT('Origin',(-7.2,0.,0.));
#555=CARTESIAN_POINT('',(-6.4,13.2,-1.61653377487451E-15));
#556=CARTESIAN_POINT('',(-6.4,-13.2,-1.61653377487451E-15));
#557=CARTESIAN_POINT('Origin',(-6.4,0.,0.));
#558=CARTESIAN_POINT('Origin',(-6.4,0.,0.));
#559=CARTESIAN_POINT('',(-7.2,12.4,1.51856203094272E-15));
#560=CARTESIAN_POINT('Origin',(-4.,0.,0.));
#561=CARTESIAN_POINT('',(-1.6,13.2,1.61653377487451E-15));
#562=CARTESIAN_POINT('',(-1.6,-13.2,-1.61653377487451E-15));
#563=CARTESIAN_POINT('Origin',(-1.6,0.,0.));
#564=CARTESIAN_POINT('Origin',(-1.6,0.,0.));
#565=CARTESIAN_POINT('',(-4.,-13.2,-1.61653377487451E-15));
#566=CARTESIAN_POINT('Origin',(-0.8,0.,0.));
#567=CARTESIAN_POINT('',(-0.8,12.4,1.51856203094272E-15));
#568=UNCERTAINTY_MEASURE_WITH_UNIT(LENGTH_MEASURE(0.01),#572,
'DISTANCE_ACCURACY_VALUE',
'Maximum model space distance between geometric entities at asserted c
onnectivities');
#569=UNCERTAINTY_MEASURE_WITH_UNIT(LENGTH_MEASURE(0.01),#572,
'DISTANCE_ACCURACY_VALUE',
'Maximum model space distance between geometric entities at asserted c
onnectivities');
#570=(
GEOMETRIC_REPRESENTATION_CONTEXT(3)
GLOBAL_UNCERTAINTY_ASSIGNED_CONTEXT((#568))
GLOBAL_UNIT_ASSIGNED_CONTEXT((#572,#574,#575))
REPRESENTATION_CONTEXT('','3D')
);
#571=(
GEOMETRIC_REPRESENTATION_CONTEXT(3)
GLOBAL_UNCERTAINTY_ASSIGNED_CONTEXT((#569))
GLOBAL_UNIT_ASSIGNED_CONTEXT((#572,#574,#575))
REPRESENTATION_CONTEXT('','3D')
);
#572=(
LENGTH_UNIT()
NAMED_UNIT(*)
SI_UNIT(.MILLI.,.METRE.)
);
#573=(
LENGTH_UNIT()
NAMED_UNIT(*)
SI_UNIT(.CENTI.,.METRE.)
);
#574=(
NAMED_UNIT(*)
PLANE_ANGLE_UNIT()
SI_UNIT($,.RADIAN.)
);
#575=(
NAMED_UNIT(*)
SI_UNIT($,.STERADIAN.)
SOLID_ANGLE_UNIT()
);
#576=SHAPE_DEFINITION_REPRESENTATION(#577,#578);
#577=PRODUCT_DEFINITION_SHAPE('',$,#580);
#578=SHAPE_REPRESENTATION('',(#327),#570);
#579=PRODUCT_DEFINITION_CONTEXT('part definition',#584,'design');
#580=PRODUCT_DEFINITION('3D_R666-G-DN10-DN20_17113515',
'3D_R666-G-DN10-DN20_17113515',#581,#579);
#581=PRODUCT_DEFINITION_FORMATION('',$,#586);
#582=PRODUCT_RELATED_PRODUCT_CATEGORY('3D_R666-G-DN10-DN20_17113515',
'3D_R666-G-DN10-DN20_17113515',(#586));
#583=APPLICATION_PROTOCOL_DEFINITION('international standard',
'automotive_design',2009,#584);
#584=APPLICATION_CONTEXT(
'Core Data for Automotive Mechanical Design Process');
#585=PRODUCT_CONTEXT('part definition',#584,'mechanical');
#586=PRODUCT('3D_R666-G-DN10-DN20_17113515',
'3D_R666-G-DN10-DN20_17113515',$,(#585));
#587=PRESENTATION_STYLE_ASSIGNMENT((#588));
#588=SURFACE_STYLE_USAGE(.BOTH.,#591);
#589=SURFACE_STYLE_RENDERING_WITH_PROPERTIES($,#595,(#590));
#590=SURFACE_STYLE_TRANSPARENT(0.);
#591=SURFACE_SIDE_STYLE('',(#592,#589));
#592=SURFACE_STYLE_FILL_AREA(#593);
#593=FILL_AREA_STYLE('',(#594));
#594=FILL_AREA_STYLE_COLOUR('',#595);
#595=COLOUR_RGB('',0.749019607843137,0.749019607843137,0.749019607843137);
ENDSEC;
END-ISO-10303-21;
