ISO-10303-21;
HEADER;
FILE_DESCRIPTION (( 'STEP AP203' ),
    '1' );
FILE_NAME ('3D-LR-131-SE_38-34_17106580.STEP',
    '2024-09-02T20:28:40',
    ( '' ),
    ( '' ),
    'SwSTEP 2.0',
    'SolidWorks 2024',
    '' );
FILE_SCHEMA (( 'CONFIG_CONTROL_DESIGN' ));
ENDSEC;

DATA;
#1 = EDGE_CURVE ( 'NONE', #205, #201, #354, .T. ) ;
#2 = CARTESIAN_POINT ( 'NONE',  ( -11.25000000000000355, 0.000000000000000000, 16.99999999999999645 ) ) ;
#3 = VECTOR ( 'NONE', #122, 1000.000000000000000 ) ;
#4 = AXIS2_PLACEMENT_3D ( 'NONE', #164, #393, #98 ) ;
#5 = CARTESIAN_POINT ( 'NONE',  ( -11.25000000000000355, 2.081899558550499885E-15, -16.99999999999999645 ) ) ;
#6 = VERTEX_POINT ( 'NONE', #18 ) ;
#7 = ORIENTED_EDGE ( 'NONE', *, *, #1, .T. ) ;
#8 = ORIENTED_EDGE ( 'NONE', *, *, #64, .F. ) ;
#9 = APPROVAL_DATE_TIME ( #351, #149 ) ;
#10 = AXIS2_PLACEMENT_3D ( 'NONE', #189, #24, #255 ) ;
#11 = AXIS2_PLACEMENT_3D ( 'NONE', #258, #161, #30 ) ;
#12 = VERTEX_POINT ( 'NONE', #85 ) ;
#13 = PERSON_AND_ORGANIZATION ( #14, #332 ) ;
#14 = PERSON ( 'UNSPECIFIED', 'UNSPECIFIED', 'UNSPECIFIED', ('UNSPECIFIED'), ('UNSPECIFIED'), ('UNSPECIFIED') ) ;
#15 = ORIENTED_EDGE ( 'NONE', *, *, #350, .T. ) ;
#16 = EDGE_CURVE ( 'NONE', #137, #352, #223, .T. ) ;
#17 = APPLICATION_PROTOCOL_DEFINITION ( 'international standard', 'config_control_design', 1994, #40 ) ;
#18 = CARTESIAN_POINT ( 'NONE',  ( 11.24999999999999645, 2.081899558550500280E-15, -17.00000000000000000 ) ) ;
#19 = APPROVAL_ROLE ( '' ) ;
#20 = AXIS2_PLACEMENT_3D ( 'NONE', #50, #63, #191 ) ;
#21 = DIRECTION ( 'NONE',  ( 0.000000000000000000, 0.000000000000000000, 1.000000000000000000 ) ) ;
#22 = DIRECTION ( 'NONE',  ( 0.000000000000000000, 0.000000000000000000, 1.000000000000000000 ) ) ;
#23 = CARTESIAN_POINT ( 'NONE',  ( -36.70332301863295754, 0.000000000000000000, 0.000000000000000000 ) ) ;
#24 = DIRECTION ( 'NONE',  ( -1.000000000000000000, -0.000000000000000000, -0.000000000000000000 ) ) ;
#25 = LINE ( 'NONE', #266, #95 ) ;
#26 = DIRECTION ( 'NONE',  ( 0.000000000000000000, 0.000000000000000000, 1.000000000000000000 ) ) ;
#27 = CIRCLE ( 'NONE', #298, 17.00000000000000000 ) ;
#28 = FACE_OUTER_BOUND ( 'NONE', #241, .T. ) ;
#29 = EDGE_CURVE ( 'NONE', #6, #205, #385, .T. ) ;
#30 = DIRECTION ( 'NONE',  ( 0.000000000000000000, 0.000000000000000000, 1.000000000000000000 ) ) ;
#31 = CC_DESIGN_DATE_AND_TIME_ASSIGNMENT ( #147, #308, ( #148 ) ) ;
#32 = CARTESIAN_POINT ( 'NONE',  ( 1.249999999999994227, 0.000000000000000000, 0.000000000000000000 ) ) ;
#33 = DIRECTION ( 'NONE',  ( -1.000000000000000000, -0.000000000000000000, -0.000000000000000000 ) ) ;
#34 = EDGE_CURVE ( 'NONE', #200, #187, #257, .T. ) ;
#35 = DIRECTION ( 'NONE',  ( -1.000000000000000000, -0.000000000000000000, -0.000000000000000000 ) ) ;
#36 = ORIENTED_EDGE ( 'NONE', *, *, #379, .F. ) ;
#37 = AXIS2_PLACEMENT_3D ( 'NONE', #197, #195, #330 ) ;
#38 = CC_DESIGN_APPROVAL ( #199, ( #148 ) ) ;
#39 = ADVANCED_FACE ( 'NONE', ( #259 ), #377, .T. ) ;
#40 = APPLICATION_CONTEXT ( 'configuration controlled 3d designs of mechanical parts and assemblies' ) ;
#41 = ORIENTED_EDGE ( 'NONE', *, *, #236, .T. ) ;
#42 = DIRECTION ( 'NONE',  ( -1.000000000000000000, -0.000000000000000000, -0.000000000000000000 ) ) ;
#43 = ORIENTED_EDGE ( 'NONE', *, *, #64, .T. ) ;
#44 = CALENDAR_DATE ( 2024, 2, 9 ) ;
#45 = VECTOR ( 'NONE', #216, 1000.000000000000000 ) ;
#46 = LOCAL_TIME ( 22, 28, 40.00000000000000000, #182 ) ;
#47 = EDGE_CURVE ( 'NONE', #212, #140, #305, .T. ) ;
#48 = ORIENTED_EDGE ( 'NONE', *, *, #78, .T. ) ;
#49 = PERSON_AND_ORGANIZATION ( #14, #332 ) ;
#50 = CARTESIAN_POINT ( 'NONE',  ( -36.70332301863295754, 0.000000000000000000, 0.000000000000000000 ) ) ;
#51 = ORIENTED_EDGE ( 'NONE', *, *, #78, .F. ) ;
#52 = APPLICATION_PROTOCOL_DEFINITION ( 'international standard', 'config_control_design', 1994, #402 ) ;
#53 = LINE ( 'NONE', #313, #289 ) ;
#54 = PERSON_AND_ORGANIZATION ( #14, #332 ) ;
#55 = CIRCLE ( 'NONE', #56, 19.00000000000000000 ) ;
#56 = AXIS2_PLACEMENT_3D ( 'NONE', #426, #194, #327 ) ;
#57 = VERTEX_POINT ( 'NONE', #82 ) ;
#58 = CC_DESIGN_SECURITY_CLASSIFICATION ( #395, ( #193 ) ) ;
#59 = COORDINATED_UNIVERSAL_TIME_OFFSET ( 1, 0, .AHEAD. ) ;
#60 = ORIENTED_EDGE ( 'NONE', *, *, #125, .T. ) ;
#61 = DIRECTION ( 'NONE',  ( 0.000000000000000000, 0.000000000000000000, 1.000000000000000000 ) ) ;
#62 = DIRECTION ( 'NONE',  ( -1.000000000000000000, -0.000000000000000000, -0.000000000000000000 ) ) ;
#63 = DIRECTION ( 'NONE',  ( -1.000000000000000000, -0.000000000000000000, -0.000000000000000000 ) ) ;
#64 = EDGE_CURVE ( 'NONE', #88, #212, #53, .T. ) ;
#65 = DIRECTION ( 'NONE',  ( -1.000000000000000000, -0.000000000000000000, -0.000000000000000000 ) ) ;
#66 = AXIS2_PLACEMENT_3D ( 'NONE', #421, #294, #288 ) ;
#67 = APPROVAL_PERSON_ORGANIZATION ( #184, #149, #215 ) ;
#68 = DIRECTION ( 'NONE',  ( -1.000000000000000000, -0.000000000000000000, -0.000000000000000000 ) ) ;
#69 = DIRECTION ( 'NONE',  ( 1.000000000000000000, 0.000000000000000000, 0.000000000000000000 ) ) ;
#70 = FACE_OUTER_BOUND ( 'NONE', #285, .T. ) ;
#71 = AXIS2_PLACEMENT_3D ( 'NONE', #348, #213, #378 ) ;
#72 = ORIENTED_EDGE ( 'NONE', *, *, #107, .T. ) ;
#73 = ADVANCED_FACE ( 'NONE', ( #90 ), #347, .F. ) ;
#74 = VERTEX_POINT ( 'NONE', #83 ) ;
#75 = VECTOR ( 'NONE', #234, 1000.000000000000000 ) ;
#76 = ORIENTED_EDGE ( 'NONE', *, *, #277, .F. ) ;
#77 = DIRECTION ( 'NONE',  ( 0.000000000000000000, 0.000000000000000000, 1.000000000000000000 ) ) ;
#78 = EDGE_CURVE ( 'NONE', #106, #200, #146, .T. ) ;
#79 = ORIENTED_EDGE ( 'NONE', *, *, #396, .T. ) ;
#80 =( NAMED_UNIT ( * ) PLANE_ANGLE_UNIT ( ) SI_UNIT ( $, .RADIAN. ) );
#81 = LOCAL_TIME ( 22, 28, 40.00000000000000000, #117 ) ;
#82 = CARTESIAN_POINT ( 'NONE',  ( 11.24999999999999645, 0.000000000000000000, 19.00000000000000000 ) ) ;
#83 = CARTESIAN_POINT ( 'NONE',  ( 1.249999999999994227, 0.000000000000000000, 19.00000000000000000 ) ) ;
#84 = DATE_TIME_ROLE ( 'classification_date' ) ;
#85 = CARTESIAN_POINT ( 'NONE',  ( -10.05000000000000426, 0.000000000000000000, 24.75000000000000000 ) ) ;
#86 = PERSON_AND_ORGANIZATION_ROLE ( 'design_supplier' ) ;
#87 = AXIS2_PLACEMENT_3D ( 'NONE', #32, #420, #126 ) ;
#88 = VERTEX_POINT ( 'NONE', #413 ) ;
#89 = CARTESIAN_POINT ( 'NONE',  ( -9.829591274114424237, 0.000000000000000000, 0.000000000000000000 ) ) ;
#90 = FACE_OUTER_BOUND ( 'NONE', #139, .T. ) ;
#91 = CARTESIAN_POINT ( 'NONE',  ( 1.249999999999994227, 2.877919977996280320E-15, -23.50000000000000000 ) ) ;
#92 = ADVANCED_FACE ( 'NONE', ( #116 ), #252, .T. ) ;
#93 = DIRECTION ( 'NONE',  ( -1.000000000000000000, -0.000000000000000000, -0.000000000000000000 ) ) ;
#94 = PLANE ( 'NONE',  #251 ) ;
#95 = VECTOR ( 'NONE', #328, 1000.000000000000000 ) ;
#96 = APPROVAL_PERSON_ORGANIZATION ( #407, #103, #353 ) ;
#97 = DIRECTION ( 'NONE',  ( 0.000000000000000000, 0.000000000000000000, 1.000000000000000000 ) ) ;
#98 = DIRECTION ( 'NONE',  ( 0.000000000000000000, 0.000000000000000000, -1.000000000000000000 ) ) ;
#99 = CARTESIAN_POINT ( 'NONE',  ( 11.24999999999999645, 2.326828918379970970E-15, -19.00000000000000000 ) ) ;
#100 = DIRECTION ( 'NONE',  ( 0.000000000000000000, 0.000000000000000000, 1.000000000000000000 ) ) ;
#101 = CARTESIAN_POINT ( 'NONE',  ( -36.70332301863295754, 2.877919977996280320E-15, -23.50000000000000000 ) ) ;
#102 = ORIENTED_EDGE ( 'NONE', *, *, #247, .T. ) ;
#103 = APPROVAL ( #249, 'UNSPECIFIED' ) ;
#104 = ORIENTED_EDGE ( 'NONE', *, *, #211, .T. ) ;
#105 = EDGE_LOOP ( 'NONE', ( #368, #318 ) ) ;
#106 = VERTEX_POINT ( 'NONE', #425 ) ;
#107 = EDGE_CURVE ( 'NONE', #12, #187, #265, .T. ) ;
#108 = MECHANICAL_CONTEXT ( 'NONE', #402, 'mechanical' ) ;
#109 = DIRECTION ( 'NONE',  ( 0.000000000000000000, 0.000000000000000000, 1.000000000000000000 ) ) ;
#110 = ORIENTED_EDGE ( 'NONE', *, *, #277, .T. ) ;
#111 = CALENDAR_DATE ( 2024, 2, 9 ) ;
#112 = ORIENTED_EDGE ( 'NONE', *, *, #29, .T. ) ;
#113 = CALENDAR_DATE ( 2024, 2, 9 ) ;
#114 = AXIS2_PLACEMENT_3D ( 'NONE', #423, #33, #363 ) ;
#115 = CC_DESIGN_APPROVAL ( #103, ( #193 ) ) ;
#116 = FACE_OUTER_BOUND ( 'NONE', #243, .T. ) ;
#117 = COORDINATED_UNIVERSAL_TIME_OFFSET ( 1, 0, .AHEAD. ) ;
#118 = CYLINDRICAL_SURFACE ( 'NONE', #326, 23.50000000000000000 ) ;
#119 = EDGE_CURVE ( 'NONE', #140, #106, #362, .T. ) ;
#120 = DESIGN_CONTEXT ( 'detailed design', #40, 'design' ) ;
#121 = CARTESIAN_POINT ( 'NONE',  ( -9.829591274114424237, 0.000000000000000000, 0.000000000000000000 ) ) ;
#122 = DIRECTION ( 'NONE',  ( -1.000000000000000000, -0.000000000000000000, -0.000000000000000000 ) ) ;
#123 = CONICAL_SURFACE ( 'NONE', #220, 24.75000000000000000, 1.396263401595465359 ) ;
#124 = DIRECTION ( 'NONE',  ( -1.000000000000000000, -0.000000000000000000, -0.000000000000000000 ) ) ;
#125 = EDGE_CURVE ( 'NONE', #404, #88, #336, .T. ) ;
#126 = DIRECTION ( 'NONE',  ( 0.000000000000000000, 0.000000000000000000, 1.000000000000000000 ) ) ;
#127 = CC_DESIGN_PERSON_AND_ORGANIZATION_ASSIGNMENT ( #409, #275, ( #395 ) ) ;
#128 = DIRECTION ( 'NONE',  ( -1.000000000000000000, -0.000000000000000000, -0.000000000000000000 ) ) ;
#129 = CARTESIAN_POINT ( 'NONE',  ( 11.24999999999999645, 19.00000000000000000, 0.000000000000000000 ) ) ;
#130 = CIRCLE ( 'NONE', #172, 16.99999999999999645 ) ;
#131 = FACE_OUTER_BOUND ( 'NONE', #105, .T. ) ;
#132 = CARTESIAN_POINT ( 'NONE',  ( -11.25000000000000355, 16.99999999999999645, 0.000000000000000000 ) ) ;
#133 = CARTESIAN_POINT ( 'NONE',  ( 11.24999999999999645, 0.000000000000000000, 17.00000000000000000 ) ) ;
#134 = CIRCLE ( 'NONE', #114, 16.99999999999999645 ) ;
#135 = EDGE_CURVE ( 'NONE', #205, #6, #27, .T. ) ;
#136 = PRODUCT_RELATED_PRODUCT_CATEGORY ( 'detail', '', ( #165 ) ) ;
#137 = VERTEX_POINT ( 'NONE', #99 ) ;
#138 = CARTESIAN_POINT ( 'NONE',  ( -11.25000000000000355, 0.000000000000000000, 0.000000000000000000 ) ) ;
#139 = EDGE_LOOP ( 'NONE', ( #390, #174, #7, #273 ) ) ;
#140 = VERTEX_POINT ( 'NONE', #160 ) ;
#141 = SHAPE_DEFINITION_REPRESENTATION ( #232, #190 ) ;
#142 = EDGE_LOOP ( 'NONE', ( #372, #112 ) ) ;
#143 = SECURITY_CLASSIFICATION_LEVEL ( 'unclassified' ) ;
#144 = ORIENTED_EDGE ( 'NONE', *, *, #186, .F. ) ;
#145 =( NAMED_UNIT ( * ) SI_UNIT ( $, .STERADIAN. ) SOLID_ANGLE_UNIT ( ) );
#146 = LINE ( 'NONE', #152, #365 ) ;
#147 = DATE_AND_TIME ( #44, #81 ) ;
#148 = PRODUCT_DEFINITION ( 'UNKNOWN', '', #193, #120 ) ;
#149 = APPROVAL ( #218, 'UNSPECIFIED' ) ;
#150 = AXIS2_PLACEMENT_3D ( 'NONE', #278, #153, #77 ) ;
#151 = EDGE_LOOP ( 'NONE', ( #102, #337 ) ) ;
#152 = CARTESIAN_POINT ( 'NONE',  ( -36.70332301863295754, 3.031000827889699256E-15, -24.75000000000000000 ) ) ;
#153 = DIRECTION ( 'NONE',  ( -1.000000000000000000, -0.000000000000000000, -0.000000000000000000 ) ) ;
#154 = ADVANCED_FACE ( 'NONE', ( #422 ), #264, .T. ) ;
#155 = CARTESIAN_POINT ( 'NONE',  ( -11.25000000000000355, 0.000000000000000000, 0.000000000000000000 ) ) ;
#156 = DIRECTION ( 'NONE',  ( 0.000000000000000000, 0.000000000000000000, -1.000000000000000000 ) ) ;
#157 = AXIS2_PLACEMENT_3D ( 'NONE', #373, #276, #109 ) ;
#158 = ORIENTED_EDGE ( 'NONE', *, *, #316, .T. ) ;
#159 = LINE ( 'NONE', #260, #283 ) ;
#160 = CARTESIAN_POINT ( 'NONE',  ( -9.829591274114424237, 2.954460402942990182E-15, -23.50000000000000000 ) ) ;
#161 = DIRECTION ( 'NONE',  ( -1.000000000000000000, -0.000000000000000000, -0.000000000000000000 ) ) ;
#162 = DIRECTION ( 'NONE',  ( 0.000000000000000000, 0.000000000000000000, 1.000000000000000000 ) ) ;
#163 = AXIS2_PLACEMENT_3D ( 'NONE', #339, #338, #100 ) ;
#164 = CARTESIAN_POINT ( 'NONE',  ( 1.249999999999995559, 23.50000000000000000, 0.000000000000000000 ) ) ;
#165 = PRODUCT ( '3D-LR-131-SE_38-34_17106580', '3D-LR-131-SE_38-34_17106580', '', ( #108 ) ) ;
#166 = DIRECTION ( 'NONE',  ( -0.000000000000000000, 0.000000000000000000, 1.000000000000000000 ) ) ;
#167 = DIRECTION ( 'NONE',  ( -1.000000000000000000, -0.000000000000000000, -0.000000000000000000 ) ) ;
#168 = EDGE_CURVE ( 'NONE', #201, #185, #130, .T. ) ;
#169 = DIRECTION ( 'NONE',  ( -1.000000000000000000, -0.000000000000000000, -0.000000000000000000 ) ) ;
#170 = CLOSED_SHELL ( 'NONE', ( #39, #333, #366, #92, #424, #300, #73, #412, #304, #154, #228, #291, #240 ) ) ;
#171 = ORIENTED_EDGE ( 'NONE', *, *, #388, .T. ) ;
#172 = AXIS2_PLACEMENT_3D ( 'NONE', #138, #169, #370 ) ;
#173 = ORIENTED_EDGE ( 'NONE', *, *, #269, .F. ) ;
#174 = ORIENTED_EDGE ( 'NONE', *, *, #135, .F. ) ;
#175 = ORIENTED_EDGE ( 'NONE', *, *, #262, .F. ) ;
#176 = CALENDAR_DATE ( 2024, 2, 9 ) ;
#177 = AXIS2_PLACEMENT_3D ( 'NONE', #121, #124, #21 ) ;
#178 = CIRCLE ( 'NONE', #227, 24.75000000000000000 ) ;
#179 = ORIENTED_EDGE ( 'NONE', *, *, #119, .F. ) ;
#180 = ORIENTED_EDGE ( 'NONE', *, *, #211, .F. ) ;
#181 = CC_DESIGN_PERSON_AND_ORGANIZATION_ASSIGNMENT ( #209, #341, ( #165 ) ) ;
#182 = COORDINATED_UNIVERSAL_TIME_OFFSET ( 1, 0, .AHEAD. ) ;
#183 = DIRECTION ( 'NONE',  ( -1.000000000000000000, -0.000000000000000000, -0.000000000000000000 ) ) ;
#184 = PERSON_AND_ORGANIZATION ( #14, #332 ) ;
#185 = VERTEX_POINT ( 'NONE', #5 ) ;
#186 = EDGE_CURVE ( 'NONE', #57, #137, #202, .T. ) ;
#187 = VERTEX_POINT ( 'NONE', #245 ) ;
#188 = CARTESIAN_POINT ( 'NONE',  ( -10.05000000000000426, 0.000000000000000000, 0.000000000000000000 ) ) ;
#189 = CARTESIAN_POINT ( 'NONE',  ( 11.24999999999999645, 0.000000000000000000, 0.000000000000000000 ) ) ;
#190 = ADVANCED_BREP_SHAPE_REPRESENTATION ( '3D-LR-131-SE_38-34_17106580', ( #361, #71 ), #387 ) ;
#191 = DIRECTION ( 'NONE',  ( 0.000000000000000000, 0.000000000000000000, 1.000000000000000000 ) ) ;
#192 = AXIS2_PLACEMENT_3D ( 'NONE', #188, #292, #97 ) ;
#193 = PRODUCT_DEFINITION_FORMATION_WITH_SPECIFIED_SOURCE ( 'ANY', '', #165, .NOT_KNOWN. ) ;
#194 = DIRECTION ( 'NONE',  ( -1.000000000000000000, -0.000000000000000000, -0.000000000000000000 ) ) ;
#195 = DIRECTION ( 'NONE',  ( -1.000000000000000000, -0.000000000000000000, -0.000000000000000000 ) ) ;
#196 = CARTESIAN_POINT ( 'NONE',  ( -10.05000000000000426, 3.031000827889699256E-15, -24.75000000000000000 ) ) ;
#197 = CARTESIAN_POINT ( 'NONE',  ( -36.70332301863295754, 0.000000000000000000, 0.000000000000000000 ) ) ;
#198 = EDGE_CURVE ( 'NONE', #57, #74, #207, .T. ) ;
#199 = APPROVAL ( #346, 'UNSPECIFIED' ) ;
#200 = VERTEX_POINT ( 'NONE', #297 ) ;
#201 = VERTEX_POINT ( 'NONE', #2 ) ;
#202 = CIRCLE ( 'NONE', #157, 19.00000000000000000 ) ;
#203 = FACE_OUTER_BOUND ( 'NONE', #323, .T. ) ;
#204 = ORIENTED_EDGE ( 'NONE', *, *, #379, .T. ) ;
#205 = VERTEX_POINT ( 'NONE', #133 ) ;
#206 = FACE_OUTER_BOUND ( 'NONE', #386, .T. ) ;
#207 = LINE ( 'NONE', #343, #272 ) ;
#208 = ORIENTED_EDGE ( 'NONE', *, *, #47, .F. ) ;
#209 = PERSON_AND_ORGANIZATION ( #14, #332 ) ;
#210 = LOCAL_TIME ( 22, 28, 40.00000000000000000, #414 ) ;
#211 = EDGE_CURVE ( 'NONE', #404, #140, #401, .T. ) ;
#212 = VERTEX_POINT ( 'NONE', #415 ) ;
#213 = DIRECTION ( 'NONE',  ( 0.000000000000000000, 0.000000000000000000, 1.000000000000000000 ) ) ;
#214 = ORIENTED_EDGE ( 'NONE', *, *, #186, .T. ) ;
#215 = APPROVAL_ROLE ( '' ) ;
#216 = DIRECTION ( 'NONE',  ( -1.000000000000000000, -0.000000000000000000, -0.000000000000000000 ) ) ;
#217 = CARTESIAN_POINT ( 'NONE',  ( -36.70332301863295754, 0.000000000000000000, 0.000000000000000000 ) ) ;
#218 = APPROVAL_STATUS ( 'not_yet_approved' ) ;
#219 = VECTOR ( 'NONE', #320, 1000.000000000000000 ) ;
#220 = AXIS2_PLACEMENT_3D ( 'NONE', #226, #222, #359 ) ;
#221 = ORIENTED_EDGE ( 'NONE', *, *, #198, .F. ) ;
#222 = DIRECTION ( 'NONE',  ( -1.000000000000000000, -0.000000000000000000, -0.000000000000000000 ) ) ;
#223 = LINE ( 'NONE', #248, #3 ) ;
#224 = FACE_OUTER_BOUND ( 'NONE', #151, .T. ) ;
#225 = CARTESIAN_POINT ( 'NONE',  ( 1.249999999999994227, 0.000000000000000000, 0.000000000000000000 ) ) ;
#226 = CARTESIAN_POINT ( 'NONE',  ( -10.05000000000000426, 0.000000000000000000, 0.000000000000000000 ) ) ;
#227 = AXIS2_PLACEMENT_3D ( 'NONE', #263, #355, #61 ) ;
#228 = ADVANCED_FACE ( 'NONE', ( #319 ), #118, .T. ) ;
#229 = CARTESIAN_POINT ( 'NONE',  ( -10.05000000000000426, 0.000000000000000000, 0.000000000000000000 ) ) ;
#230 = CC_DESIGN_PERSON_AND_ORGANIZATION_ASSIGNMENT ( #13, #86, ( #193 ) ) ;
#231 = FACE_OUTER_BOUND ( 'NONE', #403, .T. ) ;
#232 = PRODUCT_DEFINITION_SHAPE ( 'NONE', 'NONE',  #148 ) ;
#233 = PLANE ( 'NONE',  #4 ) ;
#234 = DIRECTION ( 'NONE',  ( -0.1736481776669286659, 1.206041662501898114E-16, -0.9848077530122083534 ) ) ;
#235 =( LENGTH_UNIT ( ) NAMED_UNIT ( * ) SI_UNIT ( .MILLI., .METRE. ) );
#236 = EDGE_CURVE ( 'NONE', #88, #404, #344, .T. ) ;
#237 = AXIS2_PLACEMENT_3D ( 'NONE', #380, #329, #398 ) ;
#238 = ORIENTED_EDGE ( 'NONE', *, *, #267, .F. ) ;
#239 = ORIENTED_EDGE ( 'NONE', *, *, #262, .T. ) ;
#240 = ADVANCED_FACE ( 'NONE', ( #206 ), #342, .T. ) ;
#241 = EDGE_LOOP ( 'NONE', ( #41, #104, #208, #8 ) ) ;
#242 = AXIS2_PLACEMENT_3D ( 'NONE', #391, #68, #162 ) ;
#243 = EDGE_LOOP ( 'NONE', ( #110, #48, #374, #408 ) ) ;
#244 = PERSON_AND_ORGANIZATION ( #14, #332 ) ;
#245 = CARTESIAN_POINT ( 'NONE',  ( -11.25000000000000355, 0.000000000000000000, 24.75000000000000000 ) ) ;
#246 = ORIENTED_EDGE ( 'NONE', *, *, #267, .T. ) ;
#247 = EDGE_CURVE ( 'NONE', #187, #200, #178, .T. ) ;
#248 = CARTESIAN_POINT ( 'NONE',  ( -36.70332301863295754, 2.326828918379970970E-15, -19.00000000000000000 ) ) ;
#249 = APPROVAL_STATUS ( 'not_yet_approved' ) ;
#250 = AXIS2_PLACEMENT_3D ( 'NONE', #155, #287, #26 ) ;
#251 = AXIS2_PLACEMENT_3D ( 'NONE', #129, #69, #156 ) ;
#252 = CYLINDRICAL_SURFACE ( 'NONE', #237, 24.75000000000000000 ) ;
#253 = APPROVAL_DATE_TIME ( #280, #103 ) ;
#254 = DIRECTION ( 'NONE',  ( -1.000000000000000000, -0.000000000000000000, -0.000000000000000000 ) ) ;
#255 = DIRECTION ( 'NONE',  ( 0.000000000000000000, 0.000000000000000000, 1.000000000000000000 ) ) ;
#256 = ORIENTED_EDGE ( 'NONE', *, *, #350, .F. ) ;
#257 = CIRCLE ( 'NONE', #250, 24.75000000000000000 ) ;
#258 = CARTESIAN_POINT ( 'NONE',  ( 11.24999999999999645, 0.000000000000000000, 0.000000000000000000 ) ) ;
#259 = FACE_OUTER_BOUND ( 'NONE', #307, .T. ) ;
#260 = CARTESIAN_POINT ( 'NONE',  ( -10.05000000000000426, 0.000000000000000000, 24.75000000000000000 ) ) ;
#261 = CYLINDRICAL_SURFACE ( 'NONE', #37, 24.75000000000000000 ) ;
#262 = EDGE_CURVE ( 'NONE', #185, #201, #134, .T. ) ;
#263 = CARTESIAN_POINT ( 'NONE',  ( -11.25000000000000355, 0.000000000000000000, 0.000000000000000000 ) ) ;
#264 = CONICAL_SURFACE ( 'NONE', #400, 24.75000000000000000, 1.396263401595465359 ) ;
#265 = LINE ( 'NONE', #428, #306 ) ;
#266 = CARTESIAN_POINT ( 'NONE',  ( -36.70332301863295754, 2.081899558550500280E-15, -17.00000000000000000 ) ) ;
#267 = EDGE_CURVE ( 'NONE', #137, #57, #419, .T. ) ;
#268 = DIRECTION ( 'NONE',  ( 0.000000000000000000, 0.000000000000000000, 1.000000000000000000 ) ) ;
#269 = EDGE_CURVE ( 'NONE', #140, #212, #376, .T. ) ;
#270 = DIRECTION ( 'NONE',  ( 0.000000000000000000, 0.000000000000000000, 1.000000000000000000 ) ) ;
#271 = EDGE_LOOP ( 'NONE', ( #406, #175 ) ) ;
#272 = VECTOR ( 'NONE', #167, 1000.000000000000000 ) ;
#273 = ORIENTED_EDGE ( 'NONE', *, *, #168, .T. ) ;
#274 = LOCAL_TIME ( 22, 28, 40.00000000000000000, #310 ) ;
#275 = PERSON_AND_ORGANIZATION_ROLE ( 'classification_officer' ) ;
#276 = DIRECTION ( 'NONE',  ( -1.000000000000000000, -0.000000000000000000, -0.000000000000000000 ) ) ;
#277 = EDGE_CURVE ( 'NONE', #12, #106, #315, .T. ) ;
#278 = CARTESIAN_POINT ( 'NONE',  ( 1.249999999999994227, 0.000000000000000000, 0.000000000000000000 ) ) ;
#279 = ORIENTED_EDGE ( 'NONE', *, *, #16, .F. ) ;
#280 = DATE_AND_TIME ( #176, #274 ) ;
#281 = DIRECTION ( 'NONE',  ( -1.000000000000000000, -0.000000000000000000, -0.000000000000000000 ) ) ;
#282 = APPROVAL_DATE_TIME ( #312, #199 ) ;
#283 = VECTOR ( 'NONE', #392, 1000.000000000000000 ) ;
#284 = APPROVAL_PERSON_ORGANIZATION ( #54, #199, #19 ) ;
#285 = EDGE_LOOP ( 'NONE', ( #51, #171, #72, #303 ) ) ;
#286 = ORIENTED_EDGE ( 'NONE', *, *, #1, .F. ) ;
#287 = DIRECTION ( 'NONE',  ( -1.000000000000000000, -0.000000000000000000, -0.000000000000000000 ) ) ;
#288 = DIRECTION ( 'NONE',  ( 0.000000000000000000, 0.000000000000000000, 1.000000000000000000 ) ) ;
#289 = VECTOR ( 'NONE', #383, 1000.000000000000000 ) ;
#290 = CC_DESIGN_APPROVAL ( #149, ( #395 ) ) ;
#291 = ADVANCED_FACE ( 'NONE', ( #321, #131 ), #233, .T. ) ;
#292 = DIRECTION ( 'NONE',  ( -1.000000000000000000, -0.000000000000000000, -0.000000000000000000 ) ) ;
#293 = FACE_BOUND ( 'NONE', #142, .T. ) ;
#294 = DIRECTION ( 'NONE',  ( -1.000000000000000000, -0.000000000000000000, -0.000000000000000000 ) ) ;
#295 = AXIS2_PLACEMENT_3D ( 'NONE', #132, #335, #166 ) ;
#296 = CYLINDRICAL_SURFACE ( 'NONE', #66, 23.50000000000000000 ) ;
#297 = CARTESIAN_POINT ( 'NONE',  ( -11.25000000000000355, 3.031000827889699256E-15, -24.75000000000000000 ) ) ;
#298 = AXIS2_PLACEMENT_3D ( 'NONE', #358, #65, #399 ) ;
#299 = EDGE_LOOP ( 'NONE', ( #204, #79 ) ) ;
#300 = ADVANCED_FACE ( 'NONE', ( #293, #231 ), #94, .T. ) ;
#301 = CC_DESIGN_PERSON_AND_ORGANIZATION_ASSIGNMENT ( #49, #384, ( #148 ) ) ;
#302 = EDGE_LOOP ( 'NONE', ( #180, #60, #43, #173 ) ) ;
#303 = ORIENTED_EDGE ( 'NONE', *, *, #34, .F. ) ;
#304 = ADVANCED_FACE ( 'NONE', ( #70 ), #261, .T. ) ;
#305 = CIRCLE ( 'NONE', #177, 23.50000000000000000 ) ;
#306 = VECTOR ( 'NONE', #93, 1000.000000000000000 ) ;
#307 = EDGE_LOOP ( 'NONE', ( #214, #345, #36, #221 ) ) ;
#308 = DATE_TIME_ROLE ( 'creation_date' ) ;
#309 = ORIENTED_EDGE ( 'NONE', *, *, #47, .T. ) ;
#310 = COORDINATED_UNIVERSAL_TIME_OFFSET ( 1, 0, .AHEAD. ) ;
#311 = EDGE_LOOP ( 'NONE', ( #179, #340, #15, #349 ) ) ;
#312 = DATE_AND_TIME ( #113, #46 ) ;
#313 = CARTESIAN_POINT ( 'NONE',  ( -36.70332301863295754, 0.000000000000000000, 23.50000000000000000 ) ) ;
#314 = CALENDAR_DATE ( 2024, 2, 9 ) ;
#315 = CIRCLE ( 'NONE', #192, 24.75000000000000000 ) ;
#316 = EDGE_CURVE ( 'NONE', #6, #185, #25, .T. ) ;
#317 = CC_DESIGN_DATE_AND_TIME_ASSIGNMENT ( #381, #84, ( #395 ) ) ;
#318 = ORIENTED_EDGE ( 'NONE', *, *, #125, .F. ) ;
#319 = FACE_OUTER_BOUND ( 'NONE', #302, .T. ) ;
#320 = DIRECTION ( 'NONE',  ( -1.000000000000000000, -0.000000000000000000, -0.000000000000000000 ) ) ;
#321 = FACE_BOUND ( 'NONE', #299, .T. ) ;
#322 = UNCERTAINTY_MEASURE_WITH_UNIT (LENGTH_MEASURE( 1.000000000000000082E-05 ), #235, 'distance_accuracy_value', 'NONE');
#323 = EDGE_LOOP ( 'NONE', ( #356, #158, #239, #286 ) ) ;
#324 = CC_DESIGN_PERSON_AND_ORGANIZATION_ASSIGNMENT ( #244, #411, ( #193 ) ) ;
#325 = DIRECTION ( 'NONE',  ( 0.000000000000000000, 0.000000000000000000, 1.000000000000000000 ) ) ;
#326 = AXIS2_PLACEMENT_3D ( 'NONE', #23, #254, #382 ) ;
#327 = DIRECTION ( 'NONE',  ( 0.000000000000000000, 0.000000000000000000, 1.000000000000000000 ) ) ;
#328 = DIRECTION ( 'NONE',  ( -1.000000000000000000, -0.000000000000000000, -0.000000000000000000 ) ) ;
#329 = DIRECTION ( 'NONE',  ( -1.000000000000000000, -0.000000000000000000, -0.000000000000000000 ) ) ;
#330 = DIRECTION ( 'NONE',  ( 0.000000000000000000, 0.000000000000000000, 1.000000000000000000 ) ) ;
#331 = AXIS2_PLACEMENT_3D ( 'NONE', #225, #35, #268 ) ;
#332 = ORGANIZATION ( 'UNSPECIFIED', 'UNSPECIFIED', '' ) ;
#333 = ADVANCED_FACE ( 'NONE', ( #28 ), #296, .T. ) ;
#334 = ORIENTED_EDGE ( 'NONE', *, *, #396, .F. ) ;
#335 = DIRECTION ( 'NONE',  ( -1.000000000000000000, 0.000000000000000000, -0.000000000000000000 ) ) ;
#336 = CIRCLE ( 'NONE', #331, 23.50000000000000000 ) ;
#337 = ORIENTED_EDGE ( 'NONE', *, *, #34, .T. ) ;
#338 = DIRECTION ( 'NONE',  ( -1.000000000000000000, -0.000000000000000000, -0.000000000000000000 ) ) ;
#339 = CARTESIAN_POINT ( 'NONE',  ( -36.70332301863295754, 0.000000000000000000, 0.000000000000000000 ) ) ;
#340 = ORIENTED_EDGE ( 'NONE', *, *, #269, .T. ) ;
#341 = PERSON_AND_ORGANIZATION_ROLE ( 'design_owner' ) ;
#342 = CYLINDRICAL_SURFACE ( 'NONE', #20, 19.00000000000000000 ) ;
#343 = CARTESIAN_POINT ( 'NONE',  ( -36.70332301863295754, 0.000000000000000000, 19.00000000000000000 ) ) ;
#344 = CIRCLE ( 'NONE', #150, 23.50000000000000000 ) ;
#345 = ORIENTED_EDGE ( 'NONE', *, *, #16, .T. ) ;
#346 = APPROVAL_STATUS ( 'not_yet_approved' ) ;
#347 = CYLINDRICAL_SURFACE ( 'NONE', #360, 17.00000000000000000 ) ;
#348 = CARTESIAN_POINT ( 'NONE',  ( 0.000000000000000000, 0.000000000000000000, 0.000000000000000000 ) ) ;
#349 = ORIENTED_EDGE ( 'NONE', *, *, #388, .F. ) ;
#350 = EDGE_CURVE ( 'NONE', #212, #12, #159, .T. ) ;
#351 = DATE_AND_TIME ( #314, #371 ) ;
#352 = VERTEX_POINT ( 'NONE', #429 ) ;
#353 = APPROVAL_ROLE ( '' ) ;
#354 = LINE ( 'NONE', #417, #219 ) ;
#355 = DIRECTION ( 'NONE',  ( -1.000000000000000000, -0.000000000000000000, -0.000000000000000000 ) ) ;
#356 = ORIENTED_EDGE ( 'NONE', *, *, #29, .F. ) ;
#357 = FACE_BOUND ( 'NONE', #271, .T. ) ;
#358 = CARTESIAN_POINT ( 'NONE',  ( 11.24999999999999645, 0.000000000000000000, 0.000000000000000000 ) ) ;
#359 = DIRECTION ( 'NONE',  ( 0.000000000000000000, 0.000000000000000000, 1.000000000000000000 ) ) ;
#360 = AXIS2_PLACEMENT_3D ( 'NONE', #217, #62, #410 ) ;
#361 = MANIFOLD_SOLID_BREP ( 'Rotation1', #170 ) ;
#362 = LINE ( 'NONE', #196, #75 ) ;
#363 = DIRECTION ( 'NONE',  ( 0.000000000000000000, 0.000000000000000000, 1.000000000000000000 ) ) ;
#364 = AXIS2_PLACEMENT_3D ( 'NONE', #418, #183, #22 ) ;
#365 = VECTOR ( 'NONE', #281, 1000.000000000000000 ) ;
#366 = ADVANCED_FACE ( 'NONE', ( #389 ), #123, .T. ) ;
#367 = EDGE_LOOP ( 'NONE', ( #309, #375, #76, #256 ) ) ;
#368 = ORIENTED_EDGE ( 'NONE', *, *, #236, .F. ) ;
#369 = AXIS2_PLACEMENT_3D ( 'NONE', #89, #128, #325 ) ;
#370 = DIRECTION ( 'NONE',  ( 0.000000000000000000, 0.000000000000000000, 1.000000000000000000 ) ) ;
#371 = LOCAL_TIME ( 22, 28, 40.00000000000000000, #59 ) ;
#372 = ORIENTED_EDGE ( 'NONE', *, *, #135, .T. ) ;
#373 = CARTESIAN_POINT ( 'NONE',  ( 11.24999999999999645, 0.000000000000000000, 0.000000000000000000 ) ) ;
#374 = ORIENTED_EDGE ( 'NONE', *, *, #247, .F. ) ;
#375 = ORIENTED_EDGE ( 'NONE', *, *, #119, .T. ) ;
#376 = CIRCLE ( 'NONE', #369, 23.50000000000000000 ) ;
#377 = CYLINDRICAL_SURFACE ( 'NONE', #364, 19.00000000000000000 ) ;
#378 = DIRECTION ( 'NONE',  ( 1.000000000000000000, 0.000000000000000000, 0.000000000000000000 ) ) ;
#379 = EDGE_CURVE ( 'NONE', #74, #352, #394, .T. ) ;
#380 = CARTESIAN_POINT ( 'NONE',  ( -36.70332301863295754, 0.000000000000000000, 0.000000000000000000 ) ) ;
#381 = DATE_AND_TIME ( #111, #210 ) ;
#382 = DIRECTION ( 'NONE',  ( 0.000000000000000000, 0.000000000000000000, 1.000000000000000000 ) ) ;
#383 = DIRECTION ( 'NONE',  ( -1.000000000000000000, -0.000000000000000000, -0.000000000000000000 ) ) ;
#384 = PERSON_AND_ORGANIZATION_ROLE ( 'creator' ) ;
#385 = CIRCLE ( 'NONE', #10, 17.00000000000000000 ) ;
#386 = EDGE_LOOP ( 'NONE', ( #279, #246, #416, #334 ) ) ;
#387 =( GEOMETRIC_REPRESENTATION_CONTEXT ( 3 ) GLOBAL_UNCERTAINTY_ASSIGNED_CONTEXT ( ( #322 ) ) GLOBAL_UNIT_ASSIGNED_CONTEXT ( ( #235, #80, #145 ) ) REPRESENTATION_CONTEXT ( 'NONE', 'WORKASPACE' ) );
#388 = EDGE_CURVE ( 'NONE', #106, #12, #427, .T. ) ;
#389 = FACE_OUTER_BOUND ( 'NONE', #367, .T. ) ;
#390 = ORIENTED_EDGE ( 'NONE', *, *, #316, .F. ) ;
#391 = CARTESIAN_POINT ( 'NONE',  ( -10.05000000000000426, 0.000000000000000000, 0.000000000000000000 ) ) ;
#392 = DIRECTION ( 'NONE',  ( -0.1736481776669286659, 0.000000000000000000, 0.9848077530122083534 ) ) ;
#393 = DIRECTION ( 'NONE',  ( 1.000000000000000000, 0.000000000000000000, 0.000000000000000000 ) ) ;
#394 = CIRCLE ( 'NONE', #87, 19.00000000000000000 ) ;
#395 = SECURITY_CLASSIFICATION ( '', '', #143 ) ;
#396 = EDGE_CURVE ( 'NONE', #352, #74, #55, .T. ) ;
#397 = PLANE ( 'NONE',  #295 ) ;
#398 = DIRECTION ( 'NONE',  ( 0.000000000000000000, 0.000000000000000000, 1.000000000000000000 ) ) ;
#399 = DIRECTION ( 'NONE',  ( 0.000000000000000000, 0.000000000000000000, 1.000000000000000000 ) ) ;
#400 = AXIS2_PLACEMENT_3D ( 'NONE', #229, #42, #270 ) ;
#401 = LINE ( 'NONE', #101, #45 ) ;
#402 = APPLICATION_CONTEXT ( 'configuration controlled 3d designs of mechanical parts and assemblies' ) ;
#403 = EDGE_LOOP ( 'NONE', ( #144, #238 ) ) ;
#404 = VERTEX_POINT ( 'NONE', #91 ) ;
#405 = CYLINDRICAL_SURFACE ( 'NONE', #163, 17.00000000000000000 ) ;
#406 = ORIENTED_EDGE ( 'NONE', *, *, #168, .F. ) ;
#407 = PERSON_AND_ORGANIZATION ( #14, #332 ) ;
#408 = ORIENTED_EDGE ( 'NONE', *, *, #107, .F. ) ;
#409 = PERSON_AND_ORGANIZATION ( #14, #332 ) ;
#410 = DIRECTION ( 'NONE',  ( 0.000000000000000000, 0.000000000000000000, 1.000000000000000000 ) ) ;
#411 = PERSON_AND_ORGANIZATION_ROLE ( 'creator' ) ;
#412 = ADVANCED_FACE ( 'NONE', ( #224, #357 ), #397, .T. ) ;
#413 = CARTESIAN_POINT ( 'NONE',  ( 1.249999999999994227, 0.000000000000000000, 23.50000000000000000 ) ) ;
#414 = COORDINATED_UNIVERSAL_TIME_OFFSET ( 1, 0, .AHEAD. ) ;
#415 = CARTESIAN_POINT ( 'NONE',  ( -9.829591274114424237, 0.000000000000000000, 23.50000000000000000 ) ) ;
#416 = ORIENTED_EDGE ( 'NONE', *, *, #198, .T. ) ;
#417 = CARTESIAN_POINT ( 'NONE',  ( -36.70332301863295754, 0.000000000000000000, 17.00000000000000000 ) ) ;
#418 = CARTESIAN_POINT ( 'NONE',  ( -36.70332301863295754, 0.000000000000000000, 0.000000000000000000 ) ) ;
#419 = CIRCLE ( 'NONE', #11, 19.00000000000000000 ) ;
#420 = DIRECTION ( 'NONE',  ( -1.000000000000000000, -0.000000000000000000, -0.000000000000000000 ) ) ;
#421 = CARTESIAN_POINT ( 'NONE',  ( -36.70332301863295754, 0.000000000000000000, 0.000000000000000000 ) ) ;
#422 = FACE_OUTER_BOUND ( 'NONE', #311, .T. ) ;
#423 = CARTESIAN_POINT ( 'NONE',  ( -11.25000000000000355, 0.000000000000000000, 0.000000000000000000 ) ) ;
#424 = ADVANCED_FACE ( 'NONE', ( #203 ), #405, .F. ) ;
#425 = CARTESIAN_POINT ( 'NONE',  ( -10.05000000000000426, 3.031000827889699256E-15, -24.75000000000000000 ) ) ;
#426 = CARTESIAN_POINT ( 'NONE',  ( 1.249999999999994227, 0.000000000000000000, 0.000000000000000000 ) ) ;
#427 = CIRCLE ( 'NONE', #242, 24.75000000000000000 ) ;
#428 = CARTESIAN_POINT ( 'NONE',  ( -36.70332301863295754, 0.000000000000000000, 24.75000000000000000 ) ) ;
#429 = CARTESIAN_POINT ( 'NONE',  ( 1.249999999999994227, 2.326828918379970970E-15, -19.00000000000000000 ) ) ;
ENDSEC;
END-ISO-10303-21;
