ISO-10303-21;
HEADER;
FILE_DESCRIPTION (( 'STEP AP203' ),
    '1' );
FILE_NAME ('3D_GS5544-FI 8.3_188500520.STEP',
    '2024-09-24T17:08:39',
    ( '' ),
    ( '' ),
    'SwSTEP 2.0',
    'SolidWorks 2024',
    '' );
FILE_SCHEMA (( 'CONFIG_CONTROL_DESIGN' ));
ENDSEC;

DATA;
#1 = PERSON_AND_ORGANIZATION_ROLE ( 'design_owner' ) ;
#2 = APPROVAL_STATUS ( 'not_yet_approved' ) ;
#3 = ORGANIZATION ( 'UNSPECIFIED', 'UNSPECIFIED', '' ) ;
#4 = FACE_OUTER_BOUND ( 'NONE', #132, .T. ) ;
#5 = CIRCLE ( 'NONE', #223, 4.150000000000000355 ) ;
#6 = DIRECTION ( 'NONE',  ( 0.000000000000000000, 0.000000000000000000, -1.000000000000000000 ) ) ;
#7 = CARTESIAN_POINT ( 'NONE',  ( 0.000000000000000000, 0.000000000000000000, 0.000000000000000000 ) ) ;
#8 = DIRECTION ( 'NONE',  ( 0.000000000000000000, 0.000000000000000000, 1.000000000000000000 ) ) ;
#9 = CC_DESIGN_PERSON_AND_ORGANIZATION_ASSIGNMENT ( #125, #40, ( #30 ) ) ;
#10 = APPROVAL_PERSON_ORGANIZATION ( #200, #98, #102 ) ;
#11 = EDGE_LOOP ( 'NONE', ( #74, #130, #218, #168 ) ) ;
#12 = VERTEX_POINT ( 'NONE', #92 ) ;
#13 = ORIENTED_EDGE ( 'NONE', *, *, #179, .F. ) ;
#14 = MANIFOLD_SOLID_BREP ( 'Schnitt-Linear austragen1', #205 ) ;
#15 = CARTESIAN_POINT ( 'NONE',  ( 0.000000000000000000, 0.000000000000000000, 0.000000000000000000 ) ) ;
#16 =( GEOMETRIC_REPRESENTATION_CONTEXT ( 3 ) GLOBAL_UNCERTAINTY_ASSIGNED_CONTEXT ( ( #97 ) ) GLOBAL_UNIT_ASSIGNED_CONTEXT ( ( #133, #171, #202 ) ) REPRESENTATION_CONTEXT ( 'NONE', 'WORKASPACE' ) );
#17 = DIRECTION ( 'NONE',  ( -0.000000000000000000, -1.000000000000000000, -0.000000000000000000 ) ) ;
#18 = CARTESIAN_POINT ( 'NONE',  ( 0.000000000000000000, 0.000000000000000000, 0.000000000000000000 ) ) ;
#19 = ADVANCED_FACE ( 'NONE', ( #75, #187 ), #126, .F. ) ;
#20 = APPLICATION_PROTOCOL_DEFINITION ( 'international standard', 'config_control_design', 1994, #229 ) ;
#21 = COORDINATED_UNIVERSAL_TIME_OFFSET ( 1, 0, .AHEAD. ) ;
#22 = APPLICATION_PROTOCOL_DEFINITION ( 'international standard', 'config_control_design', 1994, #32 ) ;
#23 = COORDINATED_UNIVERSAL_TIME_OFFSET ( 1, 0, .AHEAD. ) ;
#24 = DIRECTION ( 'NONE',  ( 0.000000000000000000, 0.000000000000000000, 1.000000000000000000 ) ) ;
#25 = APPROVAL_ROLE ( '' ) ;
#26 = ORIENTED_EDGE ( 'NONE', *, *, #51, .T. ) ;
#27 = APPROVAL ( #2, 'UNSPECIFIED' ) ;
#28 = DIRECTION ( 'NONE',  ( -0.000000000000000000, -1.000000000000000000, -0.000000000000000000 ) ) ;
#29 = ORIENTED_EDGE ( 'NONE', *, *, #233, .T. ) ;
#30 = SECURITY_CLASSIFICATION ( '', '', #145 ) ;
#31 = VERTEX_POINT ( 'NONE', #208 ) ;
#32 = APPLICATION_CONTEXT ( 'configuration controlled 3d designs of mechanical parts and assemblies' ) ;
#33 = LINE ( 'NONE', #99, #72 ) ;
#34 = EDGE_CURVE ( 'NONE', #237, #170, #66, .T. ) ;
#35 = CARTESIAN_POINT ( 'NONE',  ( 0.000000000000000000, 13.50000000000000000, -9.000000000000000000 ) ) ;
#36 = CC_DESIGN_APPROVAL ( #27, ( #85 ) ) ;
#37 = CYLINDRICAL_SURFACE ( 'NONE', #65, 9.000000000000000000 ) ;
#38 = DIRECTION ( 'NONE',  ( -0.000000000000000000, -1.000000000000000000, -0.000000000000000000 ) ) ;
#39 = APPROVAL_DATE_TIME ( #177, #144 ) ;
#40 = PERSON_AND_ORGANIZATION_ROLE ( 'classification_officer' ) ;
#41 = PERSON_AND_ORGANIZATION_ROLE ( 'design_supplier' ) ;
#42 = ADVANCED_FACE ( 'NONE', ( #48 ), #123, .F. ) ;
#43 = PERSON_AND_ORGANIZATION ( #188, #3 ) ;
#44 = ADVANCED_BREP_SHAPE_REPRESENTATION ( '3D_GS5544-FI 8.3_188500520', ( #14, #52 ), #16 ) ;
#45 = CC_DESIGN_SECURITY_CLASSIFICATION ( #30, ( #85 ) ) ;
#46 = CC_DESIGN_DATE_AND_TIME_ASSIGNMENT ( #232, #215, ( #30 ) ) ;
#47 = CARTESIAN_POINT ( 'NONE',  ( 0.000000000000000000, 13.50000000000000000, 0.000000000000000000 ) ) ;
#48 = FACE_OUTER_BOUND ( 'NONE', #203, .T. ) ;
#49 = APPROVAL_STATUS ( 'not_yet_approved' ) ;
#50 = ORIENTED_EDGE ( 'NONE', *, *, #225, .T. ) ;
#51 = EDGE_CURVE ( 'NONE', #240, #71, #5, .T. ) ;
#52 = AXIS2_PLACEMENT_3D ( 'NONE', #196, #220, #234 ) ;
#53 = DIRECTION ( 'NONE',  ( 0.000000000000000000, 1.000000000000000000, 0.000000000000000000 ) ) ;
#54 = ORIENTED_EDGE ( 'NONE', *, *, #225, .F. ) ;
#55 = ORIENTED_EDGE ( 'NONE', *, *, #179, .T. ) ;
#56 = AXIS2_PLACEMENT_3D ( 'NONE', #7, #53, #8 ) ;
#57 = DIRECTION ( 'NONE',  ( -0.000000000000000000, -1.000000000000000000, -0.000000000000000000 ) ) ;
#58 = ADVANCED_FACE ( 'NONE', ( #4 ), #107, .F. ) ;
#59 = CARTESIAN_POINT ( 'NONE',  ( -8.300000000000000711, 5.300148805569684818, 4.150000000000002132 ) ) ;
#60 = DIRECTION ( 'NONE',  ( 0.000000000000000000, 0.5000000000000000000, -0.8660254037844385966 ) ) ;
#61 = CC_DESIGN_PERSON_AND_ORGANIZATION_ASSIGNMENT ( #178, #41, ( #85 ) ) ;
#62 = DIRECTION ( 'NONE',  ( 0.000000000000000000, 0.000000000000000000, -1.000000000000000000 ) ) ;
#63 = APPROVAL_DATE_TIME ( #159, #98 ) ;
#64 = CALENDAR_DATE ( 2024, 24, 9 ) ;
#65 = AXIS2_PLACEMENT_3D ( 'NONE', #194, #17, #62 ) ;
#66 = CIRCLE ( 'NONE', #56, 9.000000000000000000 ) ;
#67 = DATE_AND_TIME ( #139, #88 ) ;
#68 = DESIGN_CONTEXT ( 'detailed design', #229, 'design' ) ;
#69 = DATE_AND_TIME ( #164, #217 ) ;
#70 = ORIENTED_EDGE ( 'NONE', *, *, #167, .T. ) ;
#71 = VERTEX_POINT ( 'NONE', #238 ) ;
#72 = VECTOR ( 'NONE', #191, 1000.000000000000000 ) ;
#73 = DIRECTION ( 'NONE',  ( 0.000000000000000000, -0.000000000000000000, 1.000000000000000000 ) ) ;
#74 = ORIENTED_EDGE ( 'NONE', *, *, #103, .F. ) ;
#75 = FACE_OUTER_BOUND ( 'NONE', #87, .T. ) ;
#76 = DIRECTION ( 'NONE',  ( 0.000000000000000000, 1.000000000000000000, 0.000000000000000000 ) ) ;
#77 = EDGE_LOOP ( 'NONE', ( #50, #26 ) ) ;
#78 = CIRCLE ( 'NONE', #160, 4.150000000000000355 ) ;
#79 = CARTESIAN_POINT ( 'NONE',  ( -18.00000000000000000, 12.89230484541326405, -9.000000000000000000 ) ) ;
#80 = CC_DESIGN_DATE_AND_TIME_ASSIGNMENT ( #67, #184, ( #93 ) ) ;
#81 = CARTESIAN_POINT ( 'NONE',  ( -9.000000000000000000, 2.500000000000000000, 9.000000000000000000 ) ) ;
#82 = PERSON_AND_ORGANIZATION ( #188, #3 ) ;
#83 = APPROVAL_STATUS ( 'not_yet_approved' ) ;
#84 = APPROVAL_ROLE ( '' ) ;
#85 = PRODUCT_DEFINITION_FORMATION_WITH_SPECIFIED_SOURCE ( 'ANY', '', #247, .NOT_KNOWN. ) ;
#86 =( BOUNDED_CURVE ( )  B_SPLINE_CURVE ( 3, ( #195, #192, #210, #153 ),
 .UNSPECIFIED., .F., .F. ) 
 B_SPLINE_CURVE_WITH_KNOTS ( ( 4, 4 ),
 ( 3.141592653589793116, 6.283185307179586232 ),
 .UNSPECIFIED. ) 
 CURVE ( )  GEOMETRIC_REPRESENTATION_ITEM ( )  RATIONAL_B_SPLINE_CURVE ( ( 1.000000000000000000, 0.3333333333333333703, 0.3333333333333333703, 1.000000000000000000 ) ) 
 REPRESENTATION_ITEM ( '' )  );
#87 = EDGE_LOOP ( 'NONE', ( #112, #189 ) ) ;
#88 = LOCAL_TIME ( 19, 8, 39.00000000000000000, #106 ) ;
#89 = VERTEX_POINT ( 'NONE', #166 ) ;
#90 = CARTESIAN_POINT ( 'NONE',  ( 0.000000000000000000, 0.000000000000000000, 0.000000000000000000 ) ) ;
#91 = DIRECTION ( 'NONE',  ( -0.000000000000000000, -1.000000000000000000, -0.000000000000000000 ) ) ;
#92 = CARTESIAN_POINT ( 'NONE',  ( 1.102182119232617714E-15, 2.500000000000000444, 9.000000000000000000 ) ) ;
#93 = PRODUCT_DEFINITION ( 'UNKNOWN', '', #85, #68 ) ;
#94 = CARTESIAN_POINT ( 'NONE',  ( 0.000000000000000000, 13.50000000000000000, 0.000000000000000000 ) ) ;
#95 = ORIENTED_EDGE ( 'NONE', *, *, #233, .F. ) ;
#96 = FACE_OUTER_BOUND ( 'NONE', #105, .T. ) ;
#97 = UNCERTAINTY_MEASURE_WITH_UNIT (LENGTH_MEASURE( 1.000000000000000082E-05 ), #133, 'distance_accuracy_value', 'NONE');
#98 = APPROVAL ( #83, 'UNSPECIFIED' ) ;
#99 = CARTESIAN_POINT ( 'NONE',  ( 0.000000000000000000, 13.50000000000000000, -4.150000000000000355 ) ) ;
#100 = CARTESIAN_POINT ( 'NONE',  ( 1.102182119232617714E-15, 2.500000000000000444, 9.000000000000000000 ) ) ;
#101 = CARTESIAN_POINT ( 'NONE',  ( 8.300000000000000711, 10.09215603984358012, -4.150000000000003020 ) ) ;
#102 = APPROVAL_ROLE ( '' ) ;
#103 = EDGE_CURVE ( 'NONE', #12, #170, #146, .T. ) ;
#104 =( BOUNDED_CURVE ( )  B_SPLINE_CURVE ( 3, ( #230, #101, #213, #226 ),
 .UNSPECIFIED., .F., .T. ) 
 B_SPLINE_CURVE_WITH_KNOTS ( ( 4, 4 ),
 ( 3.141592653589793116, 6.283185307179586232 ),
 .UNSPECIFIED. ) 
 CURVE ( )  GEOMETRIC_REPRESENTATION_ITEM ( )  RATIONAL_B_SPLINE_CURVE ( ( 1.000000000000000000, 0.3333333333333333703, 0.3333333333333333703, 1.000000000000000000 ) ) 
 REPRESENTATION_ITEM ( '' )  );
#105 = EDGE_LOOP ( 'NONE', ( #163, #199 ) ) ;
#106 = COORDINATED_UNIVERSAL_TIME_OFFSET ( 1, 0, .AHEAD. ) ;
#107 = CYLINDRICAL_SURFACE ( 'NONE', #193, 4.150000000000000355 ) ;
#108 = VECTOR ( 'NONE', #38, 1000.000000000000000 ) ;
#109 = SHAPE_DEFINITION_REPRESENTATION ( #118, #44 ) ;
#110 = ORIENTED_EDGE ( 'NONE', *, *, #161, .T. ) ;
#111 = VERTEX_POINT ( 'NONE', #228 ) ;
#112 = ORIENTED_EDGE ( 'NONE', *, *, #34, .F. ) ;
#113 = DIRECTION ( 'NONE',  ( -0.000000000000000000, -1.000000000000000000, -0.000000000000000000 ) ) ;
#114 = CARTESIAN_POINT ( 'NONE',  ( 0.000000000000000000, 10.09215603984358012, -4.150000000000000355 ) ) ;
#115 = CC_DESIGN_PERSON_AND_ORGANIZATION_ASSIGNMENT ( #235, #1, ( #247 ) ) ;
#116 = AXIS2_PLACEMENT_3D ( 'NONE', #15, #172, #211 ) ;
#117 = CARTESIAN_POINT ( 'NONE',  ( -8.300000000000000711, 10.09215603984358012, -4.150000000000001243 ) ) ;
#118 = PRODUCT_DEFINITION_SHAPE ( 'NONE', 'NONE',  #93 ) ;
#119 = PRODUCT_RELATED_PRODUCT_CATEGORY ( 'detail', '', ( #247 ) ) ;
#120 = APPROVAL_DATE_TIME ( #69, #27 ) ;
#121 = CC_DESIGN_APPROVAL ( #144, ( #30 ) ) ;
#122 = DIRECTION ( 'NONE',  ( 0.000000000000000000, 1.000000000000000000, 0.000000000000000000 ) ) ;
#123 = CYLINDRICAL_SURFACE ( 'NONE', #152, 4.150000000000000355 ) ;
#124 = EDGE_CURVE ( 'NONE', #12, #111, #147, .T. ) ;
#125 = PERSON_AND_ORGANIZATION ( #188, #3 ) ;
#126 = PLANE ( 'NONE',  #162 ) ;
#127 = LOCAL_TIME ( 19, 8, 39.00000000000000000, #158 ) ;
#128 = AXIS2_PLACEMENT_3D ( 'NONE', #81, #231, #60 ) ;
#129 = ORIENTED_EDGE ( 'NONE', *, *, #103, .T. ) ;
#130 = ORIENTED_EDGE ( 'NONE', *, *, #124, .T. ) ;
#131 = ORIENTED_EDGE ( 'NONE', *, *, #135, .F. ) ;
#132 = EDGE_LOOP ( 'NONE', ( #169, #95, #55, #242 ) ) ;
#133 =( LENGTH_UNIT ( ) NAMED_UNIT ( * ) SI_UNIT ( .MILLI., .METRE. ) );
#134 = CARTESIAN_POINT ( 'NONE',  ( 0.000000000000000000, 12.89230484541326405, -9.000000000000000000 ) ) ;
#135 = EDGE_CURVE ( 'NONE', #111, #237, #151, .T. ) ;
#136 = FACE_BOUND ( 'NONE', #221, .T. ) ;
#137 = LINE ( 'NONE', #214, #108 ) ;
#138 = EDGE_CURVE ( 'NONE', #111, #12, #86, .T. ) ;
#139 = CALENDAR_DATE ( 2024, 24, 9 ) ;
#140 = MECHANICAL_CONTEXT ( 'NONE', #32, 'mechanical' ) ;
#141 = AXIS2_PLACEMENT_3D ( 'NONE', #94, #113, #249 ) ;
#142 = ADVANCED_FACE ( 'NONE', ( #155 ), #175, .T. ) ;
#143 = COORDINATED_UNIVERSAL_TIME_OFFSET ( 1, 0, .AHEAD. ) ;
#144 = APPROVAL ( #49, 'UNSPECIFIED' ) ;
#145 = SECURITY_CLASSIFICATION_LEVEL ( 'unclassified' ) ;
#146 = LINE ( 'NONE', #206, #182 ) ;
#147 =( BOUNDED_CURVE ( )  B_SPLINE_CURVE ( 3, ( #100, #243, #79, #134 ),
 .UNSPECIFIED., .F., .T. ) 
 B_SPLINE_CURVE_WITH_KNOTS ( ( 4, 4 ),
 ( 0.000000000000000000, 3.141592653589793116 ),
 .UNSPECIFIED. ) 
 CURVE ( )  GEOMETRIC_REPRESENTATION_ITEM ( )  RATIONAL_B_SPLINE_CURVE ( ( 1.000000000000000000, 0.3333333333333333703, 0.3333333333333333703, 1.000000000000000000 ) ) 
 REPRESENTATION_ITEM ( '' )  );
#148 = CC_DESIGN_PERSON_AND_ORGANIZATION_ASSIGNMENT ( #82, #236, ( #85 ) ) ;
#149 = DIRECTION ( 'NONE',  ( 0.000000000000000000, 1.000000000000000000, 0.000000000000000000 ) ) ;
#150 = CARTESIAN_POINT ( 'NONE',  ( 5.082284216461515156E-16, 5.300148805569684818, 4.150000000000000355 ) ) ;
#151 = LINE ( 'NONE', #35, #173 ) ;
#152 = AXIS2_PLACEMENT_3D ( 'NONE', #47, #91, #165 ) ;
#153 = CARTESIAN_POINT ( 'NONE',  ( 1.102182119232617714E-15, 2.500000000000000444, 9.000000000000000000 ) ) ;
#154 = CARTESIAN_POINT ( 'NONE',  ( 0.000000000000000000, 0.000000000000000000, -9.000000000000000000 ) ) ;
#155 = FACE_OUTER_BOUND ( 'NONE', #11, .T. ) ;
#156 = APPROVAL_PERSON_ORGANIZATION ( #157, #27, #84 ) ;
#157 = PERSON_AND_ORGANIZATION ( #188, #3 ) ;
#158 = COORDINATED_UNIVERSAL_TIME_OFFSET ( 1, 0, .AHEAD. ) ;
#159 = DATE_AND_TIME ( #64, #127 ) ;
#160 = AXIS2_PLACEMENT_3D ( 'NONE', #18, #76, #245 ) ;
#161 = EDGE_CURVE ( 'NONE', #31, #89, #248, .T. ) ;
#162 = AXIS2_PLACEMENT_3D ( 'NONE', #186, #149, #73 ) ;
#163 = ORIENTED_EDGE ( 'NONE', *, *, #138, .F. ) ;
#164 = CALENDAR_DATE ( 2024, 24, 9 ) ;
#165 = DIRECTION ( 'NONE',  ( 0.000000000000000000, 0.000000000000000000, -1.000000000000000000 ) ) ;
#166 = CARTESIAN_POINT ( 'NONE',  ( 0.000000000000000000, 10.09215603984358012, -4.150000000000000355 ) ) ;
#167 = EDGE_CURVE ( 'NONE', #170, #237, #204, .T. ) ;
#168 = ORIENTED_EDGE ( 'NONE', *, *, #34, .T. ) ;
#169 = ORIENTED_EDGE ( 'NONE', *, *, #246, .F. ) ;
#170 = VERTEX_POINT ( 'NONE', #244 ) ;
#171 =( NAMED_UNIT ( * ) PLANE_ANGLE_UNIT ( ) SI_UNIT ( $, .RADIAN. ) );
#172 = DIRECTION ( 'NONE',  ( 0.000000000000000000, 1.000000000000000000, 0.000000000000000000 ) ) ;
#173 = VECTOR ( 'NONE', #57, 1000.000000000000000 ) ;
#174 = PLANE ( 'NONE',  #128 ) ;
#175 = CYLINDRICAL_SURFACE ( 'NONE', #141, 9.000000000000000000 ) ;
#176 = CARTESIAN_POINT ( 'NONE',  ( 5.082284216461515156E-16, 0.000000000000000000, 4.150000000000000355 ) ) ;
#177 = DATE_AND_TIME ( #197, #181 ) ;
#178 = PERSON_AND_ORGANIZATION ( #188, #3 ) ;
#179 = EDGE_CURVE ( 'NONE', #89, #71, #33, .T. ) ;
#180 = PERSON_AND_ORGANIZATION ( #188, #3 ) ;
#181 = LOCAL_TIME ( 19, 8, 39.00000000000000000, #23 ) ;
#182 = VECTOR ( 'NONE', #28, 1000.000000000000000 ) ;
#183 = DIRECTION ( 'NONE',  ( -0.000000000000000000, -1.000000000000000000, -0.000000000000000000 ) ) ;
#184 = DATE_TIME_ROLE ( 'creation_date' ) ;
#185 = ADVANCED_FACE ( 'NONE', ( #136, #96 ), #174, .F. ) ;
#186 = CARTESIAN_POINT ( 'NONE',  ( 0.000000000000000000, 0.000000000000000000, 0.000000000000000000 ) ) ;
#187 = FACE_BOUND ( 'NONE', #77, .T. ) ;
#188 = PERSON ( 'UNSPECIFIED', 'UNSPECIFIED', 'UNSPECIFIED', ('UNSPECIFIED'), ('UNSPECIFIED'), ('UNSPECIFIED') ) ;
#189 = ORIENTED_EDGE ( 'NONE', *, *, #167, .F. ) ;
#190 = FACE_OUTER_BOUND ( 'NONE', #207, .T. ) ;
#191 = DIRECTION ( 'NONE',  ( -0.000000000000000000, -1.000000000000000000, -0.000000000000000000 ) ) ;
#192 = CARTESIAN_POINT ( 'NONE',  ( 18.00000000000000000, 12.89230484541326582, -9.000000000000003553 ) ) ;
#193 = AXIS2_PLACEMENT_3D ( 'NONE', #224, #183, #6 ) ;
#194 = CARTESIAN_POINT ( 'NONE',  ( 0.000000000000000000, 13.50000000000000000, 0.000000000000000000 ) ) ;
#195 = CARTESIAN_POINT ( 'NONE',  ( 0.000000000000000000, 12.89230484541326405, -9.000000000000000000 ) ) ;
#196 = CARTESIAN_POINT ( 'NONE',  ( 0.000000000000000000, 0.000000000000000000, 0.000000000000000000 ) ) ;
#197 = CALENDAR_DATE ( 2024, 24, 9 ) ;
#198 = PERSON_AND_ORGANIZATION_ROLE ( 'creator' ) ;
#199 = ORIENTED_EDGE ( 'NONE', *, *, #124, .F. ) ;
#200 = PERSON_AND_ORGANIZATION ( #188, #3 ) ;
#201 = ORIENTED_EDGE ( 'NONE', *, *, #161, .F. ) ;
#202 =( NAMED_UNIT ( * ) SI_UNIT ( $, .STERADIAN. ) SOLID_ANGLE_UNIT ( ) );
#203 = EDGE_LOOP ( 'NONE', ( #201, #219, #54, #13 ) ) ;
#204 = CIRCLE ( 'NONE', #116, 9.000000000000000000 ) ;
#205 = CLOSED_SHELL ( 'NONE', ( #42, #241, #142, #19, #58, #185 ) ) ;
#206 = CARTESIAN_POINT ( 'NONE',  ( 1.102182119232617714E-15, 13.50000000000000000, 9.000000000000000000 ) ) ;
#207 = EDGE_LOOP ( 'NONE', ( #239, #129, #70, #131 ) ) ;
#208 = CARTESIAN_POINT ( 'NONE',  ( 5.082284216461515156E-16, 5.300148805569684818, 4.150000000000000355 ) ) ;
#209 = CC_DESIGN_APPROVAL ( #98, ( #93 ) ) ;
#210 = CARTESIAN_POINT ( 'NONE',  ( 18.00000000000000000, 2.499999999999999556, 9.000000000000000000 ) ) ;
#211 = DIRECTION ( 'NONE',  ( 0.000000000000000000, 0.000000000000000000, 1.000000000000000000 ) ) ;
#212 = CC_DESIGN_PERSON_AND_ORGANIZATION_ASSIGNMENT ( #180, #198, ( #93 ) ) ;
#213 = CARTESIAN_POINT ( 'NONE',  ( 8.300000000000000711, 5.300148805569684818, 4.150000000000002132 ) ) ;
#214 = CARTESIAN_POINT ( 'NONE',  ( 5.082284216461515156E-16, 13.50000000000000000, 4.150000000000000355 ) ) ;
#215 = DATE_TIME_ROLE ( 'classification_date' ) ;
#216 = CALENDAR_DATE ( 2024, 24, 9 ) ;
#217 = LOCAL_TIME ( 19, 8, 39.00000000000000000, #21 ) ;
#218 = ORIENTED_EDGE ( 'NONE', *, *, #135, .T. ) ;
#219 = ORIENTED_EDGE ( 'NONE', *, *, #246, .T. ) ;
#220 = DIRECTION ( 'NONE',  ( 0.000000000000000000, 0.000000000000000000, 1.000000000000000000 ) ) ;
#221 = EDGE_LOOP ( 'NONE', ( #29, #110 ) ) ;
#222 = LOCAL_TIME ( 19, 8, 39.00000000000000000, #143 ) ;
#223 = AXIS2_PLACEMENT_3D ( 'NONE', #90, #122, #24 ) ;
#224 = CARTESIAN_POINT ( 'NONE',  ( 0.000000000000000000, 13.50000000000000000, 0.000000000000000000 ) ) ;
#225 = EDGE_CURVE ( 'NONE', #71, #240, #78, .T. ) ;
#226 = CARTESIAN_POINT ( 'NONE',  ( 5.082284216461515156E-16, 5.300148805569684818, 4.150000000000000355 ) ) ;
#227 = APPROVAL_PERSON_ORGANIZATION ( #43, #144, #25 ) ;
#228 = CARTESIAN_POINT ( 'NONE',  ( 0.000000000000000000, 12.89230484541326405, -9.000000000000000000 ) ) ;
#229 = APPLICATION_CONTEXT ( 'configuration controlled 3d designs of mechanical parts and assemblies' ) ;
#230 = CARTESIAN_POINT ( 'NONE',  ( 0.000000000000000000, 10.09215603984358012, -4.150000000000000355 ) ) ;
#231 = DIRECTION ( 'NONE',  ( 0.000000000000000000, -0.8660254037844387076, -0.5000000000000001110 ) ) ;
#232 = DATE_AND_TIME ( #216, #222 ) ;
#233 = EDGE_CURVE ( 'NONE', #89, #31, #104, .T. ) ;
#234 = DIRECTION ( 'NONE',  ( 1.000000000000000000, 0.000000000000000000, 0.000000000000000000 ) ) ;
#235 = PERSON_AND_ORGANIZATION ( #188, #3 ) ;
#236 = PERSON_AND_ORGANIZATION_ROLE ( 'creator' ) ;
#237 = VERTEX_POINT ( 'NONE', #154 ) ;
#238 = CARTESIAN_POINT ( 'NONE',  ( 0.000000000000000000, 0.000000000000000000, -4.150000000000000355 ) ) ;
#239 = ORIENTED_EDGE ( 'NONE', *, *, #138, .T. ) ;
#240 = VERTEX_POINT ( 'NONE', #176 ) ;
#241 = ADVANCED_FACE ( 'NONE', ( #190 ), #37, .T. ) ;
#242 = ORIENTED_EDGE ( 'NONE', *, *, #51, .F. ) ;
#243 = CARTESIAN_POINT ( 'NONE',  ( -18.00000000000000000, 2.499999999999999556, 9.000000000000000000 ) ) ;
#244 = CARTESIAN_POINT ( 'NONE',  ( 1.102182119232617714E-15, 0.000000000000000000, 9.000000000000000000 ) ) ;
#245 = DIRECTION ( 'NONE',  ( 0.000000000000000000, 0.000000000000000000, 1.000000000000000000 ) ) ;
#246 = EDGE_CURVE ( 'NONE', #31, #240, #137, .T. ) ;
#247 = PRODUCT ( '3D_GS5544-FI 8.3_188500520', '3D_GS5544-FI 8.3_188500520', '', ( #140 ) ) ;
#248 =( BOUNDED_CURVE ( )  B_SPLINE_CURVE ( 3, ( #150, #59, #117, #114 ),
 .UNSPECIFIED., .F., .F. ) 
 B_SPLINE_CURVE_WITH_KNOTS ( ( 4, 4 ),
 ( 0.000000000000000000, 3.141592653589793116 ),
 .UNSPECIFIED. ) 
 CURVE ( )  GEOMETRIC_REPRESENTATION_ITEM ( )  RATIONAL_B_SPLINE_CURVE ( ( 1.000000000000000000, 0.3333333333333333703, 0.3333333333333333703, 1.000000000000000000 ) ) 
 REPRESENTATION_ITEM ( '' )  );
#249 = DIRECTION ( 'NONE',  ( 0.000000000000000000, 0.000000000000000000, -1.000000000000000000 ) ) ;
ENDSEC;
END-ISO-10303-21;
