ISO-10303-21;
HEADER;
FILE_DESCRIPTION (( 'STEP AP203' ),
    '1' );
FILE_NAME ('3D_R169-K_21-13_17325110.STEP',
    '2024-07-11T10:15:07',
    ( '' ),
    ( '' ),
    'SwSTEP 2.0',
    'SolidWorks 2024',
    '' );
FILE_SCHEMA (( 'CONFIG_CONTROL_DESIGN' ));
ENDSEC;

DATA;
#1 = EDGE_LOOP ( 'NONE', ( #191, #164 ) ) ;
#2 = COORDINATED_UNIVERSAL_TIME_OFFSET ( 1, 0, .AHEAD. ) ;
#3 = CLOSED_SHELL ( 'NONE', ( #106, #159, #104, #26, #213, #234 ) ) ;
#4 = ORIENTED_EDGE ( 'NONE', *, *, #73, .T. ) ;
#5 =( GEOMETRIC_REPRESENTATION_CONTEXT ( 3 ) GLOBAL_UNCERTAINTY_ASSIGNED_CONTEXT ( ( #98 ) ) GLOBAL_UNIT_ASSIGNED_CONTEXT ( ( #71, #247, #171 ) ) REPRESENTATION_CONTEXT ( 'NONE', 'WORKASPACE' ) );
#6 = DIRECTION ( 'NONE',  ( 0.000000000000000000, 0.000000000000000000, -1.000000000000000000 ) ) ;
#7 = DIRECTION ( 'NONE',  ( 1.000000000000000000, 0.000000000000000000, 0.000000000000000000 ) ) ;
#8 = FACE_OUTER_BOUND ( 'NONE', #103, .T. ) ;
#9 = CIRCLE ( 'NONE', #115, 6.750000000000000000 ) ;
#10 = CARTESIAN_POINT ( 'NONE',  ( 14.00000000000000000, 4.133182947122317167E-16, 6.750000000000000000 ) ) ;
#11 = ORIENTED_EDGE ( 'NONE', *, *, #89, .T. ) ;
#12 = DIRECTION ( 'NONE',  ( 0.000000000000000000, 0.000000000000000000, -1.000000000000000000 ) ) ;
#13 = CC_DESIGN_APPROVAL ( #177, ( #55 ) ) ;
#14 = FACE_OUTER_BOUND ( 'NONE', #143, .T. ) ;
#15 = CARTESIAN_POINT ( 'NONE',  ( 13.57063429638815499, 0.000000000000000000, 0.000000000000000000 ) ) ;
#16 = PERSON_AND_ORGANIZATION_ROLE ( 'creator' ) ;
#17 = ORIENTED_EDGE ( 'NONE', *, *, #89, .F. ) ;
#18 = ORIENTED_EDGE ( 'NONE', *, *, #238, .T. ) ;
#19 = PERSON_AND_ORGANIZATION_ROLE ( 'design_supplier' ) ;
#20 = ORIENTED_EDGE ( 'NONE', *, *, #238, .F. ) ;
#21 = CIRCLE ( 'NONE', #163, 8.989078200368904703 ) ;
#22 = CARTESIAN_POINT ( 'NONE',  ( 14.00000000000000000, 0.000000000000000000, 6.750000000000000000 ) ) ;
#23 = APPROVAL_PERSON_ORGANIZATION ( #94, #125, #187 ) ;
#24 = ORIENTED_EDGE ( 'NONE', *, *, #169, .F. ) ;
#25 = CARTESIAN_POINT ( 'NONE',  ( 0.000000000000000000, 0.000000000000000000, 0.000000000000000000 ) ) ;
#26 = ADVANCED_FACE ( 'NONE', ( #198, #233 ), #201, .F. ) ;
#27 = VERTEX_POINT ( 'NONE', #42 ) ;
#28 = CONICAL_SURFACE ( 'NONE', #189, 5.208687217803633196, 0.2716834984556334431 ) ;
#29 = CC_DESIGN_APPROVAL ( #137, ( #154 ) ) ;
#30 = DIRECTION ( 'NONE',  ( 0.000000000000000000, 0.000000000000000000, -1.000000000000000000 ) ) ;
#31 = DIRECTION ( 'NONE',  ( 1.000000000000000000, 0.000000000000000000, 0.000000000000000000 ) ) ;
#32 = CC_DESIGN_DATE_AND_TIME_ASSIGNMENT ( #226, #41, ( #69 ) ) ;
#33 = DIRECTION ( 'NONE',  ( 0.000000000000000000, 0.000000000000000000, 1.000000000000000000 ) ) ;
#34 = PERSON_AND_ORGANIZATION_ROLE ( 'design_owner' ) ;
#35 = APPLICATION_CONTEXT ( 'configuration controlled 3d designs of mechanical parts and assemblies' ) ;
#36 = APPLICATION_PROTOCOL_DEFINITION ( 'international standard', 'config_control_design', 1994, #237 ) ;
#37 = DATE_TIME_ROLE ( 'classification_date' ) ;
#38 = VERTEX_POINT ( 'NONE', #85 ) ;
#39 = EDGE_CURVE ( 'NONE', #118, #166, #170, .T. ) ;
#40 = PERSON_AND_ORGANIZATION ( #50, #135 ) ;
#41 = DATE_TIME_ROLE ( 'creation_date' ) ;
#42 = CARTESIAN_POINT ( 'NONE',  ( 0.000000000000000000, 1.100844584536702897E-15, -8.989078200368904703 ) ) ;
#43 = DIRECTION ( 'NONE',  ( 0.000000000000000000, 0.000000000000000000, -1.000000000000000000 ) ) ;
#44 = CC_DESIGN_PERSON_AND_ORGANIZATION_ASSIGNMENT ( #82, #19, ( #154 ) ) ;
#45 = DIRECTION ( 'NONE',  ( 0.000000000000000000, 0.000000000000000000, -1.000000000000000000 ) ) ;
#46 = PLANE ( 'NONE',  #60 ) ;
#47 = VECTOR ( 'NONE', #111, 1000.000000000000227 ) ;
#48 = CARTESIAN_POINT ( 'NONE',  ( 14.00000000000000000, 4.133182947122317167E-16, -6.750000000000000000 ) ) ;
#49 = DIRECTION ( 'NONE',  ( 0.000000000000000000, 0.000000000000000000, 1.000000000000000000 ) ) ;
#50 = PERSON ( 'UNSPECIFIED', 'UNSPECIFIED', 'UNSPECIFIED', ('UNSPECIFIED'), ('UNSPECIFIED'), ('UNSPECIFIED') ) ;
#51 = CIRCLE ( 'NONE', #141, 5.089078200368904348 ) ;
#52 = APPROVAL_DATE_TIME ( #224, #125 ) ;
#53 = CALENDAR_DATE ( 2024, 11, 7 ) ;
#54 = PERSON_AND_ORGANIZATION_ROLE ( 'classification_officer' ) ;
#55 = SECURITY_CLASSIFICATION ( '', '', #173 ) ;
#56 = APPROVAL_DATE_TIME ( #229, #137 ) ;
#57 = ORIENTED_EDGE ( 'NONE', *, *, #80, .T. ) ;
#58 = CALENDAR_DATE ( 2024, 11, 7 ) ;
#59 = CALENDAR_DATE ( 2024, 11, 7 ) ;
#60 = AXIS2_PLACEMENT_3D ( 'NONE', #86, #181, #43 ) ;
#61 = LOCAL_TIME ( 12, 15, 7.000000000000000000, #2 ) ;
#62 = ORIENTED_EDGE ( 'NONE', *, *, #243, .F. ) ;
#63 = ORIENTED_EDGE ( 'NONE', *, *, #73, .F. ) ;
#64 = DIRECTION ( 'NONE',  ( 0.000000000000000000, 0.000000000000000000, -1.000000000000000000 ) ) ;
#65 = CIRCLE ( 'NONE', #207, 10.65000000000000036 ) ;
#66 = FACE_OUTER_BOUND ( 'NONE', #174, .T. ) ;
#67 = DIRECTION ( 'NONE',  ( -1.000000000000000000, -0.000000000000000000, -0.000000000000000000 ) ) ;
#68 = DIRECTION ( 'NONE',  ( -1.000000000000000000, -0.000000000000000000, -0.000000000000000000 ) ) ;
#69 = PRODUCT_DEFINITION ( 'UNKNOWN', '', #154, #76 ) ;
#70 = CIRCLE ( 'NONE', #236, 5.089078200368904348 ) ;
#71 =( LENGTH_UNIT ( ) NAMED_UNIT ( * ) SI_UNIT ( .MILLI., .METRE. ) );
#72 = PERSON_AND_ORGANIZATION ( #50, #135 ) ;
#73 = EDGE_CURVE ( 'NONE', #118, #38, #105, .T. ) ;
#74 = CARTESIAN_POINT ( 'NONE',  ( 14.00000000000000000, 0.000000000000000000, 0.000000000000000000 ) ) ;
#75 = VECTOR ( 'NONE', #197, 1000.000000000000227 ) ;
#76 = DESIGN_CONTEXT ( 'detailed design', #35, 'design' ) ;
#77 = DIRECTION ( 'NONE',  ( 0.000000000000000000, 0.000000000000000000, -1.000000000000000000 ) ) ;
#78 = COORDINATED_UNIVERSAL_TIME_OFFSET ( 1, 0, .AHEAD. ) ;
#79 = PERSON_AND_ORGANIZATION_ROLE ( 'creator' ) ;
#80 = EDGE_CURVE ( 'NONE', #38, #126, #101, .T. ) ;
#81 = LOCAL_TIME ( 12, 15, 7.000000000000000000, #136 ) ;
#82 = PERSON_AND_ORGANIZATION ( #50, #135 ) ;
#83 = PRODUCT_RELATED_PRODUCT_CATEGORY ( 'detail', '', ( #211 ) ) ;
#84 = DIRECTION ( 'NONE',  ( 0.000000000000000000, 0.000000000000000000, -1.000000000000000000 ) ) ;
#85 = CARTESIAN_POINT ( 'NONE',  ( 0.000000000000000000, -6.521244205459656303E-16, 10.65000000000000036 ) ) ;
#86 = CARTESIAN_POINT ( 'NONE',  ( 14.00000000000000000, 0.000000000000000000, 0.000000000000000000 ) ) ;
#87 = CIRCLE ( 'NONE', #131, 8.989078200368904703 ) ;
#88 = DIRECTION ( 'NONE',  ( 1.000000000000000000, 0.000000000000000000, 0.000000000000000000 ) ) ;
#89 = EDGE_CURVE ( 'NONE', #126, #38, #65, .T. ) ;
#90 = ORIENTED_EDGE ( 'NONE', *, *, #134, .T. ) ;
#91 = CARTESIAN_POINT ( 'NONE',  ( 13.57063429638815499, 6.378802129042951431E-16, -5.208687217803633196 ) ) ;
#92 = CC_DESIGN_APPROVAL ( #125, ( #69 ) ) ;
#93 = CARTESIAN_POINT ( 'NONE',  ( 0.000000000000000000, 0.000000000000000000, 0.000000000000000000 ) ) ;
#94 = PERSON_AND_ORGANIZATION ( #50, #135 ) ;
#95 = LINE ( 'NONE', #91, #127 ) ;
#96 = AXIS2_PLACEMENT_3D ( 'NONE', #149, #188, #49 ) ;
#97 = APPROVAL_PERSON_ORGANIZATION ( #212, #177, #142 ) ;
#98 = UNCERTAINTY_MEASURE_WITH_UNIT (LENGTH_MEASURE( 1.000000000000000082E-05 ), #71, 'distance_accuracy_value', 'NONE');
#99 = DIRECTION ( 'NONE',  ( 0.000000000000000000, 0.000000000000000000, -1.000000000000000000 ) ) ;
#100 = ORIENTED_EDGE ( 'NONE', *, *, #39, .T. ) ;
#101 = CIRCLE ( 'NONE', #209, 10.65000000000000036 ) ;
#102 = APPROVAL_DATE_TIME ( #117, #177 ) ;
#103 = EDGE_LOOP ( 'NONE', ( #100, #18 ) ) ;
#104 = ADVANCED_FACE ( 'NONE', ( #178, #8 ), #46, .T. ) ;
#105 = LINE ( 'NONE', #22, #75 ) ;
#106 = ADVANCED_FACE ( 'NONE', ( #66 ), #180, .F. ) ;
#107 = DIRECTION ( 'NONE',  ( 1.000000000000000000, 0.000000000000000000, 0.000000000000000000 ) ) ;
#108 = ORIENTED_EDGE ( 'NONE', *, *, #129, .T. ) ;
#109 = DIRECTION ( 'NONE',  ( 1.000000000000000000, 0.000000000000000000, 0.000000000000000000 ) ) ;
#110 = LINE ( 'NONE', #220, #223 ) ;
#111 = DIRECTION ( 'NONE',  ( -0.9633204888727292525, 0.000000000000000000, 0.2683535647574031291 ) ) ;
#112 = AXIS2_PLACEMENT_3D ( 'NONE', #194, #240, #6 ) ;
#113 = APPROVAL_STATUS ( 'not_yet_approved' ) ;
#114 = CARTESIAN_POINT ( 'NONE',  ( 14.00000000000000000, 0.000000000000000000, 0.000000000000000000 ) ) ;
#115 = AXIS2_PLACEMENT_3D ( 'NONE', #74, #31, #77 ) ;
#116 = EDGE_LOOP ( 'NONE', ( #90, #172 ) ) ;
#117 = DATE_AND_TIME ( #59, #158 ) ;
#118 = VERTEX_POINT ( 'NONE', #10 ) ;
#119 = EDGE_LOOP ( 'NONE', ( #144, #145, #4, #57 ) ) ;
#120 = AXIS2_PLACEMENT_3D ( 'NONE', #124, #67, #184 ) ;
#121 = PERSON_AND_ORGANIZATION ( #50, #135 ) ;
#122 = LOCAL_TIME ( 12, 15, 7.000000000000000000, #78 ) ;
#123 = ORIENTED_EDGE ( 'NONE', *, *, #221, .T. ) ;
#124 = CARTESIAN_POINT ( 'NONE',  ( 14.00000000000000000, 0.000000000000000000, 0.000000000000000000 ) ) ;
#125 = APPROVAL ( #113, 'UNSPECIFIED' ) ;
#126 = VERTEX_POINT ( 'NONE', #217 ) ;
#127 = VECTOR ( 'NONE', #152, 1000.000000000000227 ) ;
#128 = LINE ( 'NONE', #130, #47 ) ;
#129 = EDGE_CURVE ( 'NONE', #146, #192, #70, .T. ) ;
#130 = CARTESIAN_POINT ( 'NONE',  ( 13.57063429638815499, 0.000000000000000000, 5.208687217803633196 ) ) ;
#131 = AXIS2_PLACEMENT_3D ( 'NONE', #235, #109, #64 ) ;
#132 = CARTESIAN_POINT ( 'NONE',  ( 0.000000000000000000, 0.000000000000000000, 8.989078200368904703 ) ) ;
#133 = PERSON_AND_ORGANIZATION ( #50, #135 ) ;
#134 = EDGE_CURVE ( 'NONE', #232, #27, #87, .T. ) ;
#135 = ORGANIZATION ( 'UNSPECIFIED', 'UNSPECIFIED', '' ) ;
#136 = COORDINATED_UNIVERSAL_TIME_OFFSET ( 1, 0, .AHEAD. ) ;
#137 = APPROVAL ( #249, 'UNSPECIFIED' ) ;
#138 = DATE_AND_TIME ( #53, #61 ) ;
#139 = ADVANCED_BREP_SHAPE_REPRESENTATION ( '3D_R169-K_21-13_17325110', ( #179, #150 ), #5 ) ;
#140 = APPROVAL_STATUS ( 'not_yet_approved' ) ;
#141 = AXIS2_PLACEMENT_3D ( 'NONE', #114, #203, #12 ) ;
#142 = APPROVAL_ROLE ( '' ) ;
#143 = EDGE_LOOP ( 'NONE', ( #62, #161, #227, #24 ) ) ;
#144 = ORIENTED_EDGE ( 'NONE', *, *, #221, .F. ) ;
#145 = ORIENTED_EDGE ( 'NONE', *, *, #39, .F. ) ;
#146 = VERTEX_POINT ( 'NONE', #239 ) ;
#147 = CARTESIAN_POINT ( 'NONE',  ( 14.00000000000000000, 0.000000000000000000, 0.000000000000000000 ) ) ;
#148 = FACE_OUTER_BOUND ( 'NONE', #216, .T. ) ;
#149 = CARTESIAN_POINT ( 'NONE',  ( 14.00000000000000000, 0.000000000000000000, 0.000000000000000000 ) ) ;
#150 = AXIS2_PLACEMENT_3D ( 'NONE', #93, #167, #244 ) ;
#151 = APPLICATION_PROTOCOL_DEFINITION ( 'international standard', 'config_control_design', 1994, #35 ) ;
#152 = DIRECTION ( 'NONE',  ( -0.9633204888727292525, 3.286383341199356247E-17, -0.2683535647574031291 ) ) ;
#153 = CALENDAR_DATE ( 2024, 11, 7 ) ;
#154 = PRODUCT_DEFINITION_FORMATION_WITH_SPECIFIED_SOURCE ( 'ANY', '', #211, .NOT_KNOWN. ) ;
#155 = CC_DESIGN_SECURITY_CLASSIFICATION ( #55, ( #154 ) ) ;
#156 = EDGE_LOOP ( 'NONE', ( #214, #17 ) ) ;
#157 = AXIS2_PLACEMENT_3D ( 'NONE', #165, #215, #162 ) ;
#158 = LOCAL_TIME ( 12, 15, 7.000000000000000000, #210 ) ;
#159 = ADVANCED_FACE ( 'NONE', ( #148 ), #246, .T. ) ;
#160 = ORIENTED_EDGE ( 'NONE', *, *, #243, .T. ) ;
#161 = ORIENTED_EDGE ( 'NONE', *, *, #202, .T. ) ;
#162 = DIRECTION ( 'NONE',  ( 0.000000000000000000, 0.000000000000000000, 1.000000000000000000 ) ) ;
#163 = AXIS2_PLACEMENT_3D ( 'NONE', #219, #222, #99 ) ;
#164 = ORIENTED_EDGE ( 'NONE', *, *, #202, .F. ) ;
#165 = CARTESIAN_POINT ( 'NONE',  ( 13.57063429638815499, 0.000000000000000000, 0.000000000000000000 ) ) ;
#166 = VERTEX_POINT ( 'NONE', #48 ) ;
#167 = DIRECTION ( 'NONE',  ( 0.000000000000000000, 0.000000000000000000, 1.000000000000000000 ) ) ;
#168 = COORDINATED_UNIVERSAL_TIME_OFFSET ( 1, 0, .AHEAD. ) ;
#169 = EDGE_CURVE ( 'NONE', #27, #232, #21, .T. ) ;
#170 = CIRCLE ( 'NONE', #112, 6.750000000000000000 ) ;
#171 =( NAMED_UNIT ( * ) SI_UNIT ( $, .STERADIAN. ) SOLID_ANGLE_UNIT ( ) );
#172 = ORIENTED_EDGE ( 'NONE', *, *, #169, .T. ) ;
#173 = SECURITY_CLASSIFICATION_LEVEL ( 'unclassified' ) ;
#174 = EDGE_LOOP ( 'NONE', ( #108, #160, #230, #182 ) ) ;
#175 = CARTESIAN_POINT ( 'NONE',  ( 0.000000000000000000, 0.000000000000000000, 0.000000000000000000 ) ) ;
#176 = DIRECTION ( 'NONE',  ( 1.000000000000000000, 0.000000000000000000, 0.000000000000000000 ) ) ;
#177 = APPROVAL ( #140, 'UNSPECIFIED' ) ;
#178 = FACE_BOUND ( 'NONE', #1, .T. ) ;
#179 = MANIFOLD_SOLID_BREP ( 'Wandung2', #3 ) ;
#180 = CONICAL_SURFACE ( 'NONE', #157, 5.208687217803633196, 0.2716834984556334431 ) ;
#181 = DIRECTION ( 'NONE',  ( 1.000000000000000000, 0.000000000000000000, 0.000000000000000000 ) ) ;
#182 = ORIENTED_EDGE ( 'NONE', *, *, #196, .F. ) ;
#183 = CC_DESIGN_PERSON_AND_ORGANIZATION_ASSIGNMENT ( #225, #16, ( #154 ) ) ;
#184 = DIRECTION ( 'NONE',  ( 0.000000000000000000, 0.000000000000000000, 1.000000000000000000 ) ) ;
#185 = APPROVAL_PERSON_ORGANIZATION ( #121, #137, #193 ) ;
#186 = CC_DESIGN_PERSON_AND_ORGANIZATION_ASSIGNMENT ( #133, #79, ( #69 ) ) ;
#187 = APPROVAL_ROLE ( '' ) ;
#188 = DIRECTION ( 'NONE',  ( -1.000000000000000000, -0.000000000000000000, -0.000000000000000000 ) ) ;
#189 = AXIS2_PLACEMENT_3D ( 'NONE', #15, #68, #33 ) ;
#190 = SHAPE_DEFINITION_REPRESENTATION ( #231, #139 ) ;
#191 = ORIENTED_EDGE ( 'NONE', *, *, #129, .F. ) ;
#192 = VERTEX_POINT ( 'NONE', #242 ) ;
#193 = APPROVAL_ROLE ( '' ) ;
#194 = CARTESIAN_POINT ( 'NONE',  ( 14.00000000000000000, 0.000000000000000000, 0.000000000000000000 ) ) ;
#195 = LOCAL_TIME ( 12, 15, 7.000000000000000000, #168 ) ;
#196 = EDGE_CURVE ( 'NONE', #146, #232, #128, .T. ) ;
#197 = DIRECTION ( 'NONE',  ( -0.9633204888727292525, 0.000000000000000000, 0.2683535647574031291 ) ) ;
#198 = FACE_BOUND ( 'NONE', #116, .T. ) ;
#199 = CARTESIAN_POINT ( 'NONE',  ( 0.000000000000000000, 0.000000000000000000, 0.000000000000000000 ) ) ;
#200 = CONICAL_SURFACE ( 'NONE', #96, 6.750000000000000000, 0.2716834984556334431 ) ;
#201 = PLANE ( 'NONE',  #241 ) ;
#202 = EDGE_CURVE ( 'NONE', #192, #146, #51, .T. ) ;
#203 = DIRECTION ( 'NONE',  ( 1.000000000000000000, 0.000000000000000000, 0.000000000000000000 ) ) ;
#204 = MECHANICAL_CONTEXT ( 'NONE', #237, 'mechanical' ) ;
#205 = CC_DESIGN_DATE_AND_TIME_ASSIGNMENT ( #138, #37, ( #55 ) ) ;
#206 = DIRECTION ( 'NONE',  ( -0.9633204888727292525, 3.286383341199356247E-17, -0.2683535647574031291 ) ) ;
#207 = AXIS2_PLACEMENT_3D ( 'NONE', #25, #107, #84 ) ;
#208 = FACE_OUTER_BOUND ( 'NONE', #119, .T. ) ;
#209 = AXIS2_PLACEMENT_3D ( 'NONE', #175, #176, #218 ) ;
#210 = COORDINATED_UNIVERSAL_TIME_OFFSET ( 1, 0, .AHEAD. ) ;
#211 = PRODUCT ( '3D_R169-K_21-13_17325110', '3D_R169-K_21-13_17325110', '', ( #204 ) ) ;
#212 = PERSON_AND_ORGANIZATION ( #50, #135 ) ;
#213 = ADVANCED_FACE ( 'NONE', ( #208 ), #200, .T. ) ;
#214 = ORIENTED_EDGE ( 'NONE', *, *, #80, .F. ) ;
#215 = DIRECTION ( 'NONE',  ( -1.000000000000000000, -0.000000000000000000, -0.000000000000000000 ) ) ;
#216 = EDGE_LOOP ( 'NONE', ( #20, #123, #11, #63 ) ) ;
#217 = CARTESIAN_POINT ( 'NONE',  ( 0.000000000000000000, 1.956373261637896595E-15, -10.65000000000000036 ) ) ;
#218 = DIRECTION ( 'NONE',  ( 0.000000000000000000, 0.000000000000000000, -1.000000000000000000 ) ) ;
#219 = CARTESIAN_POINT ( 'NONE',  ( 0.000000000000000000, 0.000000000000000000, 0.000000000000000000 ) ) ;
#220 = CARTESIAN_POINT ( 'NONE',  ( 14.00000000000000000, 8.266365894244634333E-16, -6.750000000000000000 ) ) ;
#221 = EDGE_CURVE ( 'NONE', #166, #126, #110, .T. ) ;
#222 = DIRECTION ( 'NONE',  ( 1.000000000000000000, 0.000000000000000000, 0.000000000000000000 ) ) ;
#223 = VECTOR ( 'NONE', #206, 1000.000000000000227 ) ;
#224 = DATE_AND_TIME ( #245, #195 ) ;
#225 = PERSON_AND_ORGANIZATION ( #50, #135 ) ;
#226 = DATE_AND_TIME ( #153, #122 ) ;
#227 = ORIENTED_EDGE ( 'NONE', *, *, #196, .T. ) ;
#228 = CC_DESIGN_PERSON_AND_ORGANIZATION_ASSIGNMENT ( #72, #34, ( #211 ) ) ;
#229 = DATE_AND_TIME ( #58, #81 ) ;
#230 = ORIENTED_EDGE ( 'NONE', *, *, #134, .F. ) ;
#231 = PRODUCT_DEFINITION_SHAPE ( 'NONE', 'NONE',  #69 ) ;
#232 = VERTEX_POINT ( 'NONE', #132 ) ;
#233 = FACE_OUTER_BOUND ( 'NONE', #156, .T. ) ;
#234 = ADVANCED_FACE ( 'NONE', ( #14 ), #28, .F. ) ;
#235 = CARTESIAN_POINT ( 'NONE',  ( 0.000000000000000000, 0.000000000000000000, 0.000000000000000000 ) ) ;
#236 = AXIS2_PLACEMENT_3D ( 'NONE', #147, #7, #45 ) ;
#237 = APPLICATION_CONTEXT ( 'configuration controlled 3d designs of mechanical parts and assemblies' ) ;
#238 = EDGE_CURVE ( 'NONE', #166, #118, #9, .T. ) ;
#239 = CARTESIAN_POINT ( 'NONE',  ( 14.00000000000000000, 0.000000000000000000, 5.089078200368904348 ) ) ;
#240 = DIRECTION ( 'NONE',  ( 1.000000000000000000, 0.000000000000000000, 0.000000000000000000 ) ) ;
#241 = AXIS2_PLACEMENT_3D ( 'NONE', #199, #88, #30 ) ;
#242 = CARTESIAN_POINT ( 'NONE',  ( 14.00000000000000000, 8.620384587029688847E-16, -5.089078200368904348 ) ) ;
#243 = EDGE_CURVE ( 'NONE', #192, #27, #95, .T. ) ;
#244 = DIRECTION ( 'NONE',  ( 1.000000000000000000, 0.000000000000000000, 0.000000000000000000 ) ) ;
#245 = CALENDAR_DATE ( 2024, 11, 7 ) ;
#246 = CONICAL_SURFACE ( 'NONE', #120, 6.750000000000000000, 0.2716834984556334431 ) ;
#247 =( NAMED_UNIT ( * ) PLANE_ANGLE_UNIT ( ) SI_UNIT ( $, .RADIAN. ) );
#248 = CC_DESIGN_PERSON_AND_ORGANIZATION_ASSIGNMENT ( #40, #54, ( #55 ) ) ;
#249 = APPROVAL_STATUS ( 'not_yet_approved' ) ;
ENDSEC;
END-ISO-10303-21;
