ISO-10303-21;
HEADER;
FILE_DESCRIPTION (( 'STEP AP203' ),
    '1' );
FILE_NAME ('3D-M2102P_21.3x1.6_174114015.STEP',
    '2024-09-05T09:16:44',
    ( '' ),
    ( '' ),
    'SwSTEP 2.0',
    'SolidWorks 2024',
    '' );
FILE_SCHEMA (( 'CONFIG_CONTROL_DESIGN' ));
ENDSEC;

DATA;
#1 = CC_DESIGN_APPROVAL ( #168, ( #306 ) ) ;
#2 = ORIENTED_EDGE ( 'NONE', *, *, #210, .F. ) ;
#3 = LINE ( 'NONE', #66, #17 ) ;
#4 = DIRECTION ( 'NONE',  ( 0.9977851578566089286, 0.000000000000000000, -0.06651901052377387491 ) ) ;
#5 = CIRCLE ( 'NONE', #363, 9.000000000000000000 ) ;
#6 = LINE ( 'NONE', #8, #267 ) ;
#7 = ADVANCED_FACE ( 'NONE', ( #27, #294 ), #235, .F. ) ;
#8 = CARTESIAN_POINT ( 'NONE',  ( 6.499999999999999112, 1.775737858763662015E-15, 14.50000000000000000 ) ) ;
#9 = EDGE_CURVE ( 'NONE', #396, #19, #208, .T. ) ;
#10 = DIRECTION ( 'NONE',  ( 0.000000000000000000, 0.000000000000000000, 1.000000000000000000 ) ) ;
#11 = AXIS2_PLACEMENT_3D ( 'NONE', #283, #76, #69 ) ;
#12 = CARTESIAN_POINT ( 'NONE',  ( 0.000000000000000000, 0.000000000000000000, -12.75833024919769620 ) ) ;
#13 = EDGE_CURVE ( 'NONE', #289, #19, #29, .T. ) ;
#14 = DIRECTION ( 'NONE',  ( 0.000000000000000000, 0.000000000000000000, 1.000000000000000000 ) ) ;
#15 = DIRECTION ( 'NONE',  ( -1.000000000000000000, -0.000000000000000000, -0.000000000000000000 ) ) ;
#16 = VERTEX_POINT ( 'NONE', #325 ) ;
#17 = VECTOR ( 'NONE', #338, 1000.000000000000000 ) ;
#18 = CARTESIAN_POINT ( 'NONE',  ( 16.00000000000000000, 0.000000000000000000, 9.000000000000000000 ) ) ;
#19 = VERTEX_POINT ( 'NONE', #22 ) ;
#20 = ORIENTED_EDGE ( 'NONE', *, *, #147, .T. ) ;
#21 = DIRECTION ( 'NONE',  ( 1.000000000000000000, 0.000000000000000000, 0.000000000000000000 ) ) ;
#22 = CARTESIAN_POINT ( 'NONE',  ( 6.499999999999999112, 1.304248841091931261E-15, -10.65000000000000036 ) ) ;
#23 = CALENDAR_DATE ( 2024, 5, 9 ) ;
#24 = ORIENTED_EDGE ( 'NONE', *, *, #9, .T. ) ;
#25 = EDGE_CURVE ( 'NONE', #229, #282, #186, .T. ) ;
#26 = EDGE_CURVE ( 'NONE', #400, #153, #3, .T. ) ;
#27 = FACE_OUTER_BOUND ( 'NONE', #326, .T. ) ;
#28 = EDGE_LOOP ( 'NONE', ( #399, #75, #126, #183 ) ) ;
#29 = LINE ( 'NONE', #227, #225 ) ;
#30 = AXIS2_PLACEMENT_3D ( 'NONE', #336, #32, #410 ) ;
#31 =( GEOMETRIC_REPRESENTATION_CONTEXT ( 3 ) GLOBAL_UNCERTAINTY_ASSIGNED_CONTEXT ( ( #213 ) ) GLOBAL_UNIT_ASSIGNED_CONTEXT ( ( #119, #118, #51 ) ) REPRESENTATION_CONTEXT ( 'NONE', 'WORKASPACE' ) );
#32 = DIRECTION ( 'NONE',  ( -1.000000000000000000, -0.000000000000000000, -0.000000000000000000 ) ) ;
#33 = DIRECTION ( 'NONE',  ( -1.000000000000000000, -0.000000000000000000, -0.000000000000000000 ) ) ;
#34 = DIRECTION ( 'NONE',  ( -1.000000000000000000, -0.000000000000000000, -0.000000000000000000 ) ) ;
#35 = AXIS2_PLACEMENT_3D ( 'NONE', #156, #311, #304 ) ;
#36 = EDGE_CURVE ( 'NONE', #400, #16, #67, .T. ) ;
#37 = DIRECTION ( 'NONE',  ( -1.000000000000000000, -0.000000000000000000, -0.000000000000000000 ) ) ;
#38 = DIRECTION ( 'NONE',  ( 0.000000000000000000, 0.000000000000000000, -1.000000000000000000 ) ) ;
#39 = DIRECTION ( 'NONE',  ( -1.000000000000000000, -0.000000000000000000, -0.000000000000000000 ) ) ;
#40 = EDGE_LOOP ( 'NONE', ( #151, #96, #429, #393 ) ) ;
#41 = CIRCLE ( 'NONE', #166, 14.50000000000000000 ) ;
#42 = DIRECTION ( 'NONE',  ( 0.000000000000000000, 0.000000000000000000, 1.000000000000000000 ) ) ;
#43 = DIRECTION ( 'NONE',  ( -1.000000000000000000, -0.000000000000000000, -0.000000000000000000 ) ) ;
#44 = FACE_BOUND ( 'NONE', #266, .T. ) ;
#45 = CARTESIAN_POINT ( 'NONE',  ( 17.00000000000000000, 0.000000000000000000, 0.000000000000000000 ) ) ;
#46 = AXIS2_PLACEMENT_3D ( 'NONE', #379, #68, #38 ) ;
#47 = APPROVAL_ROLE ( '' ) ;
#48 = ORIENTED_EDGE ( 'NONE', *, *, #244, .F. ) ;
#49 = CC_DESIGN_PERSON_AND_ORGANIZATION_ASSIGNMENT ( #89, #397, ( #149 ) ) ;
#50 = VERTEX_POINT ( 'NONE', #205 ) ;
#51 =( NAMED_UNIT ( * ) SI_UNIT ( $, .STERADIAN. ) SOLID_ANGLE_UNIT ( ) );
#52 = AXIS2_PLACEMENT_3D ( 'NONE', #350, #71, #389 ) ;
#53 = ORIENTED_EDGE ( 'NONE', *, *, #244, .T. ) ;
#54 = DIRECTION ( 'NONE',  ( 1.000000000000000000, 0.000000000000000000, 0.000000000000000000 ) ) ;
#55 = ORIENTED_EDGE ( 'NONE', *, *, #317, .T. ) ;
#56 = PERSON_AND_ORGANIZATION_ROLE ( 'creator' ) ;
#57 = DIRECTION ( 'NONE',  ( 0.000000000000000000, 0.000000000000000000, 1.000000000000000000 ) ) ;
#58 = DIRECTION ( 'NONE',  ( -0.000000000000000000, 0.000000000000000000, 1.000000000000000000 ) ) ;
#59 = DIRECTION ( 'NONE',  ( -1.000000000000000000, -0.000000000000000000, -0.000000000000000000 ) ) ;
#60 = CONICAL_SURFACE ( 'NONE', #135, 14.50000000000000000, 0.2617993877991505736 ) ;
#61 = AXIS2_PLACEMENT_3D ( 'NONE', #329, #90, #160 ) ;
#62 = CARTESIAN_POINT ( 'NONE',  ( 1.000000000000000888, 0.000000000000000000, 0.000000000000000000 ) ) ;
#63 = APPROVAL ( #228, 'UNSPECIFIED' ) ;
#64 = CYLINDRICAL_SURFACE ( 'NONE', #218, 10.65000000000000036 ) ;
#65 = EDGE_CURVE ( 'NONE', #195, #282, #6, .T. ) ;
#66 = CARTESIAN_POINT ( 'NONE',  ( -16.64708581120227038, 9.797174393178825657E-16, -8.000000000000000000 ) ) ;
#67 = CIRCLE ( 'NONE', #30, 8.000000000000000000 ) ;
#68 = DIRECTION ( 'NONE',  ( 1.000000000000000000, 0.000000000000000000, 0.000000000000000000 ) ) ;
#69 = DIRECTION ( 'NONE',  ( 0.000000000000000000, 0.000000000000000000, 1.000000000000000000 ) ) ;
#70 = EDGE_LOOP ( 'NONE', ( #2, #88, #258, #94 ) ) ;
#71 = DIRECTION ( 'NONE',  ( -1.000000000000000000, 0.000000000000000000, -0.000000000000000000 ) ) ;
#72 = CIRCLE ( 'NONE', #279, 12.75833024919769620 ) ;
#73 = CIRCLE ( 'NONE', #219, 9.000000000000000000 ) ;
#74 = DIRECTION ( 'NONE',  ( 0.000000000000000000, 0.000000000000000000, 1.000000000000000000 ) ) ;
#75 = ORIENTED_EDGE ( 'NONE', *, *, #26, .T. ) ;
#76 = DIRECTION ( 'NONE',  ( -1.000000000000000000, -0.000000000000000000, -0.000000000000000000 ) ) ;
#77 = EDGE_CURVE ( 'NONE', #16, #303, #409, .T. ) ;
#78 = ORIENTED_EDGE ( 'NONE', *, *, #163, .T. ) ;
#79 = EDGE_CURVE ( 'NONE', #322, #195, #72, .T. ) ;
#80 = FACE_OUTER_BOUND ( 'NONE', #418, .T. ) ;
#81 = DATE_TIME_ROLE ( 'classification_date' ) ;
#82 = AXIS2_PLACEMENT_3D ( 'NONE', #411, #59, #374 ) ;
#83 = DATE_TIME_ROLE ( 'creation_date' ) ;
#84 = AXIS2_PLACEMENT_3D ( 'NONE', #331, #21, #199 ) ;
#85 = ORIENTED_EDGE ( 'NONE', *, *, #337, .T. ) ;
#86 = CC_DESIGN_PERSON_AND_ORGANIZATION_ASSIGNMENT ( #122, #355, ( #136 ) ) ;
#87 = PERSON_AND_ORGANIZATION ( #192, #394 ) ;
#88 = ORIENTED_EDGE ( 'NONE', *, *, #402, .F. ) ;
#89 = PERSON_AND_ORGANIZATION ( #192, #394 ) ;
#90 = DIRECTION ( 'NONE',  ( -1.000000000000000000, -0.000000000000000000, -0.000000000000000000 ) ) ;
#91 = EDGE_LOOP ( 'NONE', ( #24, #53 ) ) ;
#92 = PERSON_AND_ORGANIZATION_ROLE ( 'design_owner' ) ;
#93 = AXIS2_PLACEMENT_3D ( 'NONE', #179, #247, #112 ) ;
#94 = ORIENTED_EDGE ( 'NONE', *, *, #366, .T. ) ;
#95 = PERSON_AND_ORGANIZATION ( #192, #394 ) ;
#96 = ORIENTED_EDGE ( 'NONE', *, *, #65, .T. ) ;
#97 = CARTESIAN_POINT ( 'NONE',  ( 6.499999999999999112, 0.000000000000000000, -14.50000000000000000 ) ) ;
#98 = CARTESIAN_POINT ( 'NONE',  ( 6.499999999999999112, 0.000000000000000000, 0.000000000000000000 ) ) ;
#99 = CIRCLE ( 'NONE', #345, 12.75833024919769620 ) ;
#100 = APPROVAL_PERSON_ORGANIZATION ( #234, #168, #47 ) ;
#101 = EDGE_CURVE ( 'NONE', #289, #181, #378, .T. ) ;
#102 = CARTESIAN_POINT ( 'NONE',  ( -16.64708581120227038, 0.000000000000000000, 0.000000000000000000 ) ) ;
#103 = CYLINDRICAL_SURFACE ( 'NONE', #82, 8.000000000000000000 ) ;
#104 = LINE ( 'NONE', #377, #140 ) ;
#105 = FACE_OUTER_BOUND ( 'NONE', #107, .T. ) ;
#106 = CARTESIAN_POINT ( 'NONE',  ( 6.499999999999999112, 0.000000000000000000, -14.50000000000000000 ) ) ;
#107 = EDGE_LOOP ( 'NONE', ( #285, #20, #78, #369 ) ) ;
#108 = DIRECTION ( 'NONE',  ( -1.000000000000000000, -0.000000000000000000, -0.000000000000000000 ) ) ;
#109 = ORIENTED_EDGE ( 'NONE', *, *, #147, .F. ) ;
#110 = AXIS2_PLACEMENT_3D ( 'NONE', #300, #364, #398 ) ;
#111 = APPROVAL ( #395, 'UNSPECIFIED' ) ;
#112 = DIRECTION ( 'NONE',  ( 0.000000000000000000, 0.000000000000000000, 1.000000000000000000 ) ) ;
#113 = ADVANCED_FACE ( 'NONE', ( #212 ), #277, .F. ) ;
#114 = CALENDAR_DATE ( 2024, 5, 9 ) ;
#115 = FACE_BOUND ( 'NONE', #91, .T. ) ;
#116 = PRODUCT ( '3D-M2102P_21.3x1.6_174114015', '3D-M2102P_21.3x1.6_174114015', '', ( #323 ) ) ;
#117 = EDGE_LOOP ( 'NONE', ( #301, #293, #423, #121 ) ) ;
#118 =( NAMED_UNIT ( * ) PLANE_ANGLE_UNIT ( ) SI_UNIT ( $, .RADIAN. ) );
#119 =( LENGTH_UNIT ( ) NAMED_UNIT ( * ) SI_UNIT ( .MILLI., .METRE. ) );
#120 = CIRCLE ( 'NONE', #372, 10.65000000000000036 ) ;
#121 = ORIENTED_EDGE ( 'NONE', *, *, #308, .F. ) ;
#122 = PERSON_AND_ORGANIZATION ( #192, #394 ) ;
#123 = PERSON_AND_ORGANIZATION ( #192, #394 ) ;
#124 = ORIENTED_EDGE ( 'NONE', *, *, #198, .F. ) ;
#125 = CALENDAR_DATE ( 2024, 5, 9 ) ;
#126 = ORIENTED_EDGE ( 'NONE', *, *, #295, .T. ) ;
#127 = DATE_AND_TIME ( #162, #172 ) ;
#128 = VECTOR ( 'NONE', #237, 1000.000000000000000 ) ;
#129 = ORIENTED_EDGE ( 'NONE', *, *, #79, .T. ) ;
#130 = ADVANCED_FACE ( 'NONE', ( #341 ), #64, .T. ) ;
#131 = CARTESIAN_POINT ( 'NONE',  ( 17.00000000000000000, 0.000000000000000000, 0.000000000000000000 ) ) ;
#132 = DIRECTION ( 'NONE',  ( 0.000000000000000000, 0.000000000000000000, 1.000000000000000000 ) ) ;
#133 = ADVANCED_FACE ( 'NONE', ( #274 ), #60, .T. ) ;
#134 = DIRECTION ( 'NONE',  ( 0.000000000000000000, 0.000000000000000000, 1.000000000000000000 ) ) ;
#135 = AXIS2_PLACEMENT_3D ( 'NONE', #98, #370, #310 ) ;
#136 = PRODUCT_DEFINITION_FORMATION_WITH_SPECIFIED_SOURCE ( 'ANY', '', #116, .NOT_KNOWN. ) ;
#137 = DIRECTION ( 'NONE',  ( -1.000000000000000000, -0.000000000000000000, -0.000000000000000000 ) ) ;
#138 = CARTESIAN_POINT ( 'NONE',  ( 0.000000000000000000, 0.000000000000000000, 0.000000000000000000 ) ) ;
#139 = PLANE ( 'NONE',  #407 ) ;
#140 = VECTOR ( 'NONE', #4, 1000.000000000000000 ) ;
#141 = CIRCLE ( 'NONE', #354, 9.000000000000000000 ) ;
#142 = CARTESIAN_POINT ( 'NONE',  ( 16.00000000000000000, 0.000000000000000000, 0.000000000000000000 ) ) ;
#143 = ORIENTED_EDGE ( 'NONE', *, *, #163, .F. ) ;
#144 = FACE_OUTER_BOUND ( 'NONE', #428, .T. ) ;
#145 = ADVANCED_FACE ( 'NONE', ( #240 ), #103, .F. ) ;
#146 = DIRECTION ( 'NONE',  ( -1.000000000000000000, -0.000000000000000000, -0.000000000000000000 ) ) ;
#147 = EDGE_CURVE ( 'NONE', #16, #400, #334, .T. ) ;
#148 = ORIENTED_EDGE ( 'NONE', *, *, #65, .F. ) ;
#149 = SECURITY_CLASSIFICATION ( '', '', #296 ) ;
#150 = CYLINDRICAL_SURFACE ( 'NONE', #11, 9.000000000000000000 ) ;
#151 = ORIENTED_EDGE ( 'NONE', *, *, #211, .F. ) ;
#152 = COORDINATED_UNIVERSAL_TIME_OFFSET ( 1, 0, .AHEAD. ) ;
#153 = VERTEX_POINT ( 'NONE', #305 ) ;
#154 = CARTESIAN_POINT ( 'NONE',  ( 6.499999999999999112, 0.000000000000000000, 10.65000000000000036 ) ) ;
#155 = MANIFOLD_SOLID_BREP ( 'Rotation1', #259 ) ;
#156 = CARTESIAN_POINT ( 'NONE',  ( 6.499999999999999112, 0.000000000000000000, 0.000000000000000000 ) ) ;
#157 = CARTESIAN_POINT ( 'NONE',  ( 17.00000000000000000, 0.000000000000000000, 0.000000000000000000 ) ) ;
#158 = CONICAL_SURFACE ( 'NONE', #46, 8.000000000000000000, 0.06656816377582375210 ) ;
#159 = ORIENTED_EDGE ( 'NONE', *, *, #25, .F. ) ;
#160 = DIRECTION ( 'NONE',  ( 0.000000000000000000, 0.000000000000000000, 1.000000000000000000 ) ) ;
#161 = DIRECTION ( 'NONE',  ( 0.000000000000000000, 0.000000000000000000, 1.000000000000000000 ) ) ;
#162 = CALENDAR_DATE ( 2024, 5, 9 ) ;
#163 = EDGE_CURVE ( 'NONE', #400, #315, #104, .T. ) ;
#164 = EDGE_LOOP ( 'NONE', ( #256, #333 ) ) ;
#165 = AXIS2_PLACEMENT_3D ( 'NONE', #201, #330, #161 ) ;
#166 = AXIS2_PLACEMENT_3D ( 'NONE', #415, #108, #222 ) ;
#167 = DIRECTION ( 'NONE',  ( -1.000000000000000000, -0.000000000000000000, -0.000000000000000000 ) ) ;
#168 = APPROVAL ( #257, 'UNSPECIFIED' ) ;
#169 = CARTESIAN_POINT ( 'NONE',  ( 1.000000000000000888, 9.797174393178825657E-16, 8.000000000000000000 ) ) ;
#170 = DIRECTION ( 'NONE',  ( 0.000000000000000000, 0.000000000000000000, 1.000000000000000000 ) ) ;
#171 = LINE ( 'NONE', #309, #238 ) ;
#172 = LOCAL_TIME ( 11, 16, 44.00000000000000000, #152 ) ;
#173 = CARTESIAN_POINT ( 'NONE',  ( 0.000000000000000000, 0.000000000000000000, 0.000000000000000000 ) ) ;
#174 = DESIGN_CONTEXT ( 'detailed design', #358, 'design' ) ;
#175 = CARTESIAN_POINT ( 'NONE',  ( 17.00000000000000000, 0.000000000000000000, 10.65000000000000036 ) ) ;
#176 = CARTESIAN_POINT ( 'NONE',  ( 2.575153669400137620E-16, 12.75833024919769620, 0.000000000000000000 ) ) ;
#177 = AXIS2_PLACEMENT_3D ( 'NONE', #236, #197, #58 ) ;
#178 = CC_DESIGN_APPROVAL ( #111, ( #149 ) ) ;
#179 = CARTESIAN_POINT ( 'NONE',  ( 0.000000000000000000, 0.000000000000000000, 0.000000000000000000 ) ) ;
#180 = CC_DESIGN_PERSON_AND_ORGANIZATION_ASSIGNMENT ( #87, #92, ( #116 ) ) ;
#181 = VERTEX_POINT ( 'NONE', #175 ) ;
#182 = CARTESIAN_POINT ( 'NONE',  ( 17.00000000000000000, 1.304248841091931261E-15, -10.65000000000000036 ) ) ;
#183 = ORIENTED_EDGE ( 'NONE', *, *, #337, .F. ) ;
#184 = DIRECTION ( 'NONE',  ( 0.000000000000000000, 0.000000000000000000, -1.000000000000000000 ) ) ;
#185 = ORIENTED_EDGE ( 'NONE', *, *, #414, .F. ) ;
#186 = CIRCLE ( 'NONE', #35, 14.50000000000000000 ) ;
#187 = CIRCLE ( 'NONE', #346, 9.000000000000000000 ) ;
#188 = DIRECTION ( 'NONE',  ( -1.000000000000000000, -0.000000000000000000, -0.000000000000000000 ) ) ;
#189 = ORIENTED_EDGE ( 'NONE', *, *, #414, .T. ) ;
#190 = DATE_AND_TIME ( #356, #246 ) ;
#191 = VERTEX_POINT ( 'NONE', #242 ) ;
#192 = PERSON ( 'UNSPECIFIED', 'UNSPECIFIED', 'UNSPECIFIED', ('UNSPECIFIED'), ('UNSPECIFIED'), ('UNSPECIFIED') ) ;
#193 = DATE_AND_TIME ( #125, #233 ) ;
#194 = COORDINATED_UNIVERSAL_TIME_OFFSET ( 1, 0, .AHEAD. ) ;
#195 = VERTEX_POINT ( 'NONE', #339 ) ;
#196 = AXIS2_PLACEMENT_3D ( 'NONE', #284, #318, #74 ) ;
#197 = DIRECTION ( 'NONE',  ( -1.000000000000000000, 0.000000000000000000, -0.000000000000000000 ) ) ;
#198 = EDGE_CURVE ( 'NONE', #365, #303, #375, .T. ) ;
#199 = DIRECTION ( 'NONE',  ( 0.000000000000000000, 0.000000000000000000, -1.000000000000000000 ) ) ;
#200 = EDGE_LOOP ( 'NONE', ( #388, #332, #252, #48 ) ) ;
#201 = CARTESIAN_POINT ( 'NONE',  ( 6.499999999999999112, 0.000000000000000000, 0.000000000000000000 ) ) ;
#202 = AXIS2_PLACEMENT_3D ( 'NONE', #102, #207, #132 ) ;
#203 = LOCAL_TIME ( 11, 16, 44.00000000000000000, #426 ) ;
#204 = DIRECTION ( 'NONE',  ( 0.9659258262890679791, 3.169619151431778500E-17, 0.2588190451025218497 ) ) ;
#205 = CARTESIAN_POINT ( 'NONE',  ( 0.000000000000000000, 0.000000000000000000, 8.000000000000000000 ) ) ;
#206 = DIRECTION ( 'NONE',  ( -1.000000000000000000, -0.000000000000000000, -0.000000000000000000 ) ) ;
#207 = DIRECTION ( 'NONE',  ( -1.000000000000000000, -0.000000000000000000, -0.000000000000000000 ) ) ;
#208 = CIRCLE ( 'NONE', #165, 10.65000000000000036 ) ;
#209 = CC_DESIGN_SECURITY_CLASSIFICATION ( #149, ( #136 ) ) ;
#210 = EDGE_CURVE ( 'NONE', #191, #315, #171, .T. ) ;
#211 = EDGE_CURVE ( 'NONE', #195, #322, #99, .T. ) ;
#212 = FACE_OUTER_BOUND ( 'NONE', #70, .T. ) ;
#213 = UNCERTAINTY_MEASURE_WITH_UNIT (LENGTH_MEASURE( 1.000000000000000082E-05 ), #119, 'distance_accuracy_value', 'NONE');
#214 = CARTESIAN_POINT ( 'NONE',  ( -16.64708581120227038, 0.000000000000000000, 8.000000000000000000 ) ) ;
#215 = ORIENTED_EDGE ( 'NONE', *, *, #383, .F. ) ;
#216 = CC_DESIGN_PERSON_AND_ORGANIZATION_ASSIGNMENT ( #95, #368, ( #306 ) ) ;
#217 = CARTESIAN_POINT ( 'NONE',  ( 6.499999999999999112, 1.775737858763662015E-15, 14.50000000000000000 ) ) ;
#218 = AXIS2_PLACEMENT_3D ( 'NONE', #272, #245, #406 ) ;
#219 = AXIS2_PLACEMENT_3D ( 'NONE', #224, #255, #352 ) ;
#220 = CARTESIAN_POINT ( 'NONE',  ( 17.00000000000000000, 0.000000000000000000, 9.000000000000000000 ) ) ;
#221 = ORIENTED_EDGE ( 'NONE', *, *, #367, .F. ) ;
#222 = DIRECTION ( 'NONE',  ( 0.000000000000000000, 0.000000000000000000, 1.000000000000000000 ) ) ;
#223 = ORIENTED_EDGE ( 'NONE', *, *, #211, .T. ) ;
#224 = CARTESIAN_POINT ( 'NONE',  ( 17.00000000000000000, 0.000000000000000000, 0.000000000000000000 ) ) ;
#225 = VECTOR ( 'NONE', #167, 1000.000000000000000 ) ;
#226 = PERSON_AND_ORGANIZATION ( #192, #394 ) ;
#227 = CARTESIAN_POINT ( 'NONE',  ( -16.64708581120227038, 1.304248841091931261E-15, -10.65000000000000036 ) ) ;
#228 = APPROVAL_STATUS ( 'not_yet_approved' ) ;
#229 = VERTEX_POINT ( 'NONE', #97 ) ;
#230 = ADVANCED_FACE ( 'NONE', ( #275 ), #158, .F. ) ;
#231 = ORIENTED_EDGE ( 'NONE', *, *, #317, .F. ) ;
#232 = ADVANCED_FACE ( 'NONE', ( #44, #144 ), #139, .F. ) ;
#233 = LOCAL_TIME ( 11, 16, 44.00000000000000000, #359 ) ;
#234 = PERSON_AND_ORGANIZATION ( #192, #394 ) ;
#235 = PLANE ( 'NONE',  #177 ) ;
#236 = CARTESIAN_POINT ( 'NONE',  ( 17.00000000000000000, 10.65000000000000036, 0.000000000000000000 ) ) ;
#237 = DIRECTION ( 'NONE',  ( 0.9977851578566089286, 8.146229332038878484E-18, 0.06651901052377387491 ) ) ;
#238 = VECTOR ( 'NONE', #37, 1000.000000000000000 ) ;
#239 = CIRCLE ( 'NONE', #61, 8.000000000000000000 ) ;
#240 = FACE_OUTER_BOUND ( 'NONE', #28, .T. ) ;
#241 = PRODUCT_RELATED_PRODUCT_CATEGORY ( 'detail', '', ( #116 ) ) ;
#242 = CARTESIAN_POINT ( 'NONE',  ( 17.00000000000000000, 1.102182119232617714E-15, -9.000000000000000000 ) ) ;
#243 = DIRECTION ( 'NONE',  ( 0.000000000000000000, 0.000000000000000000, 1.000000000000000000 ) ) ;
#244 = EDGE_CURVE ( 'NONE', #19, #396, #120, .T. ) ;
#245 = DIRECTION ( 'NONE',  ( -1.000000000000000000, -0.000000000000000000, -0.000000000000000000 ) ) ;
#246 = LOCAL_TIME ( 11, 16, 44.00000000000000000, #292 ) ;
#247 = DIRECTION ( 'NONE',  ( -1.000000000000000000, -0.000000000000000000, -0.000000000000000000 ) ) ;
#248 = CC_DESIGN_PERSON_AND_ORGANIZATION_ASSIGNMENT ( #123, #56, ( #136 ) ) ;
#249 = CYLINDRICAL_SURFACE ( 'NONE', #313, 10.65000000000000036 ) ;
#250 = ORIENTED_EDGE ( 'NONE', *, *, #324, .F. ) ;
#251 = LINE ( 'NONE', #214, #408 ) ;
#252 = ORIENTED_EDGE ( 'NONE', *, *, #308, .T. ) ;
#253 = CIRCLE ( 'NONE', #93, 8.000000000000000000 ) ;
#254 = DIRECTION ( 'NONE',  ( 0.000000000000000000, 0.000000000000000000, 1.000000000000000000 ) ) ;
#255 = DIRECTION ( 'NONE',  ( -1.000000000000000000, -0.000000000000000000, -0.000000000000000000 ) ) ;
#256 = ORIENTED_EDGE ( 'NONE', *, *, #402, .T. ) ;
#257 = APPROVAL_STATUS ( 'not_yet_approved' ) ;
#258 = ORIENTED_EDGE ( 'NONE', *, *, #198, .T. ) ;
#259 = CLOSED_SHELL ( 'NONE', ( #319, #427, #145, #230, #276, #113, #386, #287, #232, #133, #349, #130, #7 ) ) ;
#260 = LOCAL_TIME ( 11, 16, 44.00000000000000000, #194 ) ;
#261 = DIRECTION ( 'NONE',  ( -1.000000000000000000, -0.000000000000000000, -0.000000000000000000 ) ) ;
#262 = EDGE_LOOP ( 'NONE', ( #298, #109, #85, #189 ) ) ;
#263 = APPLICATION_PROTOCOL_DEFINITION ( 'international standard', 'config_control_design', 1994, #376 ) ;
#264 = ORIENTED_EDGE ( 'NONE', *, *, #79, .F. ) ;
#265 = FACE_OUTER_BOUND ( 'NONE', #40, .T. ) ;
#266 = EDGE_LOOP ( 'NONE', ( #185, #425 ) ) ;
#267 = VECTOR ( 'NONE', #204, 1000.000000000000000 ) ;
#268 = VECTOR ( 'NONE', #316, 1000.000000000000000 ) ;
#269 = APPROVAL_DATE_TIME ( #127, #168 ) ;
#270 = ORIENTED_EDGE ( 'NONE', *, *, #290, .T. ) ;
#271 = DIRECTION ( 'NONE',  ( -1.000000000000000000, -0.000000000000000000, -0.000000000000000000 ) ) ;
#272 = CARTESIAN_POINT ( 'NONE',  ( -16.64708581120227038, 0.000000000000000000, 0.000000000000000000 ) ) ;
#273 = CONICAL_SURFACE ( 'NONE', #110, 14.50000000000000000, 0.2617993877991505736 ) ;
#274 = FACE_OUTER_BOUND ( 'NONE', #403, .T. ) ;
#275 = FACE_OUTER_BOUND ( 'NONE', #302, .T. ) ;
#276 = ADVANCED_FACE ( 'NONE', ( #80 ), #150, .F. ) ;
#277 = CYLINDRICAL_SURFACE ( 'NONE', #202, 9.000000000000000000 ) ;
#278 = CYLINDRICAL_SURFACE ( 'NONE', #196, 8.000000000000000000 ) ;
#279 = AXIS2_PLACEMENT_3D ( 'NONE', #138, #34, #134 ) ;
#280 = APPROVAL_PERSON_ORGANIZATION ( #226, #63, #360 ) ;
#281 = FACE_OUTER_BOUND ( 'NONE', #262, .T. ) ;
#282 = VERTEX_POINT ( 'NONE', #217 ) ;
#283 = CARTESIAN_POINT ( 'NONE',  ( -16.64708581120227038, 0.000000000000000000, 0.000000000000000000 ) ) ;
#284 = CARTESIAN_POINT ( 'NONE',  ( -16.64708581120227038, 0.000000000000000000, 0.000000000000000000 ) ) ;
#285 = ORIENTED_EDGE ( 'NONE', *, *, #77, .F. ) ;
#286 = VECTOR ( 'NONE', #344, 1000.000000000000000 ) ;
#287 = ADVANCED_FACE ( 'NONE', ( #281 ), #278, .F. ) ;
#288 = CARTESIAN_POINT ( 'NONE',  ( -16.64708581120227038, 0.000000000000000000, 0.000000000000000000 ) ) ;
#289 = VERTEX_POINT ( 'NONE', #182 ) ;
#290 = EDGE_CURVE ( 'NONE', #322, #229, #342, .T. ) ;
#291 = APPROVAL_ROLE ( '' ) ;
#292 = COORDINATED_UNIVERSAL_TIME_OFFSET ( 1, 0, .AHEAD. ) ;
#293 = ORIENTED_EDGE ( 'NONE', *, *, #13, .T. ) ;
#294 = FACE_BOUND ( 'NONE', #164, .T. ) ;
#295 = EDGE_CURVE ( 'NONE', #153, #50, #253, .T. ) ;
#296 = SECURITY_CLASSIFICATION_LEVEL ( 'unclassified' ) ;
#297 = DATE_AND_TIME ( #23, #260 ) ;
#298 = ORIENTED_EDGE ( 'NONE', *, *, #26, .F. ) ;
#299 = APPROVAL_DATE_TIME ( #193, #111 ) ;
#300 = CARTESIAN_POINT ( 'NONE',  ( 6.499999999999999112, 0.000000000000000000, 0.000000000000000000 ) ) ;
#301 = ORIENTED_EDGE ( 'NONE', *, *, #383, .T. ) ;
#302 = EDGE_LOOP ( 'NONE', ( #362, #390, #231, #143 ) ) ;
#303 = VERTEX_POINT ( 'NONE', #18 ) ;
#304 = DIRECTION ( 'NONE',  ( 0.000000000000000000, 0.000000000000000000, 1.000000000000000000 ) ) ;
#305 = CARTESIAN_POINT ( 'NONE',  ( 0.000000000000000000, 9.797174393178825657E-16, -8.000000000000000000 ) ) ;
#306 = PRODUCT_DEFINITION ( 'UNKNOWN', '', #136, #174 ) ;
#307 = AXIS2_PLACEMENT_3D ( 'NONE', #45, #188, #412 ) ;
#308 = EDGE_CURVE ( 'NONE', #181, #396, #312, .T. ) ;
#309 = CARTESIAN_POINT ( 'NONE',  ( -16.64708581120227038, 1.102182119232617714E-15, -9.000000000000000000 ) ) ;
#310 = DIRECTION ( 'NONE',  ( 0.000000000000000000, 0.000000000000000000, -1.000000000000000000 ) ) ;
#311 = DIRECTION ( 'NONE',  ( -1.000000000000000000, -0.000000000000000000, -0.000000000000000000 ) ) ;
#312 = LINE ( 'NONE', #387, #286 ) ;
#313 = AXIS2_PLACEMENT_3D ( 'NONE', #288, #146, #14 ) ;
#314 = DIRECTION ( 'NONE',  ( 1.000000000000000000, 0.000000000000000000, 0.000000000000000000 ) ) ;
#315 = VERTEX_POINT ( 'NONE', #347 ) ;
#316 = DIRECTION ( 'NONE',  ( 0.9659258262890679791, 0.000000000000000000, -0.2588190451025218497 ) ) ;
#317 = EDGE_CURVE ( 'NONE', #315, #303, #5, .T. ) ;
#318 = DIRECTION ( 'NONE',  ( -1.000000000000000000, -0.000000000000000000, -0.000000000000000000 ) ) ;
#319 = ADVANCED_FACE ( 'NONE', ( #380 ), #249, .T. ) ;
#320 = DATE_AND_TIME ( #114, #203 ) ;
#321 = APPLICATION_PROTOCOL_DEFINITION ( 'international standard', 'config_control_design', 1994, #358 ) ;
#322 = VERTEX_POINT ( 'NONE', #12 ) ;
#323 = MECHANICAL_CONTEXT ( 'NONE', #376, 'mechanical' ) ;
#324 = EDGE_CURVE ( 'NONE', #282, #229, #41, .T. ) ;
#325 = CARTESIAN_POINT ( 'NONE',  ( 1.000000000000000888, 1.040949779275250140E-15, 8.000000000000000000 ) ) ;
#326 = EDGE_LOOP ( 'NONE', ( #215, #361 ) ) ;
#327 = AXIS2_PLACEMENT_3D ( 'NONE', #391, #420, #54 ) ;
#328 = PERSON_AND_ORGANIZATION ( #192, #394 ) ;
#329 = CARTESIAN_POINT ( 'NONE',  ( 0.000000000000000000, 0.000000000000000000, 0.000000000000000000 ) ) ;
#330 = DIRECTION ( 'NONE',  ( -1.000000000000000000, -0.000000000000000000, -0.000000000000000000 ) ) ;
#331 = CARTESIAN_POINT ( 'NONE',  ( 1.000000000000000888, 0.000000000000000000, 0.000000000000000000 ) ) ;
#332 = ORIENTED_EDGE ( 'NONE', *, *, #101, .T. ) ;
#333 = ORIENTED_EDGE ( 'NONE', *, *, #367, .T. ) ;
#334 = CIRCLE ( 'NONE', #353, 8.000000000000000000 ) ;
#335 = CIRCLE ( 'NONE', #307, 10.65000000000000036 ) ;
#336 = CARTESIAN_POINT ( 'NONE',  ( 1.000000000000000888, 0.000000000000000000, 0.000000000000000000 ) ) ;
#337 = EDGE_CURVE ( 'NONE', #16, #50, #251, .T. ) ;
#338 = DIRECTION ( 'NONE',  ( -1.000000000000000000, -0.000000000000000000, -0.000000000000000000 ) ) ;
#339 = CARTESIAN_POINT ( 'NONE',  ( 0.000000000000000000, 1.669091344489071580E-15, 12.75833024919769620 ) ) ;
#340 = CARTESIAN_POINT ( 'NONE',  ( -16.64708581120227038, 0.000000000000000000, 9.000000000000000000 ) ) ;
#341 = FACE_OUTER_BOUND ( 'NONE', #200, .T. ) ;
#342 = LINE ( 'NONE', #106, #268 ) ;
#343 = ORIENTED_EDGE ( 'NONE', *, *, #210, .T. ) ;
#344 = DIRECTION ( 'NONE',  ( -1.000000000000000000, -0.000000000000000000, -0.000000000000000000 ) ) ;
#345 = AXIS2_PLACEMENT_3D ( 'NONE', #173, #137, #404 ) ;
#346 = AXIS2_PLACEMENT_3D ( 'NONE', #157, #261, #57 ) ;
#347 = CARTESIAN_POINT ( 'NONE',  ( 16.00000000000000000, 1.102182119232617714E-15, -9.000000000000000000 ) ) ;
#348 = EDGE_LOOP ( 'NONE', ( #159, #250 ) ) ;
#349 = ADVANCED_FACE ( 'NONE', ( #382, #115 ), #384, .F. ) ;
#350 = CARTESIAN_POINT ( 'NONE',  ( 6.499999999999999112, 10.65000000000000036, 0.000000000000000000 ) ) ;
#351 = SHAPE_DEFINITION_REPRESENTATION ( #381, #371 ) ;
#352 = DIRECTION ( 'NONE',  ( 0.000000000000000000, 0.000000000000000000, 1.000000000000000000 ) ) ;
#353 = AXIS2_PLACEMENT_3D ( 'NONE', #62, #33, #170 ) ;
#354 = AXIS2_PLACEMENT_3D ( 'NONE', #142, #419, #42 ) ;
#355 = PERSON_AND_ORGANIZATION_ROLE ( 'design_supplier' ) ;
#356 = CALENDAR_DATE ( 2024, 5, 9 ) ;
#357 = ORIENTED_EDGE ( 'NONE', *, *, #25, .T. ) ;
#358 = APPLICATION_CONTEXT ( 'configuration controlled 3d designs of mechanical parts and assemblies' ) ;
#359 = COORDINATED_UNIVERSAL_TIME_OFFSET ( 1, 0, .AHEAD. ) ;
#360 = APPROVAL_ROLE ( '' ) ;
#361 = ORIENTED_EDGE ( 'NONE', *, *, #101, .F. ) ;
#362 = ORIENTED_EDGE ( 'NONE', *, *, #36, .T. ) ;
#363 = AXIS2_PLACEMENT_3D ( 'NONE', #416, #15, #254 ) ;
#364 = DIRECTION ( 'NONE',  ( 1.000000000000000000, 0.000000000000000000, 0.000000000000000000 ) ) ;
#365 = VERTEX_POINT ( 'NONE', #220 ) ;
#366 = EDGE_CURVE ( 'NONE', #303, #315, #141, .T. ) ;
#367 = EDGE_CURVE ( 'NONE', #191, #365, #73, .T. ) ;
#368 = PERSON_AND_ORGANIZATION_ROLE ( 'creator' ) ;
#369 = ORIENTED_EDGE ( 'NONE', *, *, #366, .F. ) ;
#370 = DIRECTION ( 'NONE',  ( 1.000000000000000000, 0.000000000000000000, 0.000000000000000000 ) ) ;
#371 = ADVANCED_BREP_SHAPE_REPRESENTATION ( '3D-M2102P_21.3x1.6_174114015', ( #155, #327 ), #31 ) ;
#372 = AXIS2_PLACEMENT_3D ( 'NONE', #413, #43, #10 ) ;
#373 = CC_DESIGN_DATE_AND_TIME_ASSIGNMENT ( #190, #83, ( #306 ) ) ;
#374 = DIRECTION ( 'NONE',  ( 0.000000000000000000, 0.000000000000000000, 1.000000000000000000 ) ) ;
#375 = LINE ( 'NONE', #340, #422 ) ;
#376 = APPLICATION_CONTEXT ( 'configuration controlled 3d designs of mechanical parts and assemblies' ) ;
#377 = CARTESIAN_POINT ( 'NONE',  ( 1.000000000000000888, 0.000000000000000000, -8.000000000000000000 ) ) ;
#378 = CIRCLE ( 'NONE', #392, 10.65000000000000036 ) ;
#379 = CARTESIAN_POINT ( 'NONE',  ( 1.000000000000000888, 0.000000000000000000, 0.000000000000000000 ) ) ;
#380 = FACE_OUTER_BOUND ( 'NONE', #117, .T. ) ;
#381 = PRODUCT_DEFINITION_SHAPE ( 'NONE', 'NONE',  #306 ) ;
#382 = FACE_OUTER_BOUND ( 'NONE', #348, .T. ) ;
#383 = EDGE_CURVE ( 'NONE', #181, #289, #335, .T. ) ;
#384 = PLANE ( 'NONE',  #52 ) ;
#385 = CONICAL_SURFACE ( 'NONE', #84, 8.000000000000000000, 0.06656816377582375210 ) ;
#386 = ADVANCED_FACE ( 'NONE', ( #105 ), #385, .F. ) ;
#387 = CARTESIAN_POINT ( 'NONE',  ( -16.64708581120227038, 0.000000000000000000, 10.65000000000000036 ) ) ;
#388 = ORIENTED_EDGE ( 'NONE', *, *, #13, .F. ) ;
#389 = DIRECTION ( 'NONE',  ( -0.000000000000000000, 0.000000000000000000, 1.000000000000000000 ) ) ;
#390 = ORIENTED_EDGE ( 'NONE', *, *, #77, .T. ) ;
#391 = CARTESIAN_POINT ( 'NONE',  ( 0.000000000000000000, 0.000000000000000000, 0.000000000000000000 ) ) ;
#392 = AXIS2_PLACEMENT_3D ( 'NONE', #131, #271, #243 ) ;
#393 = ORIENTED_EDGE ( 'NONE', *, *, #290, .F. ) ;
#394 = ORGANIZATION ( 'UNSPECIFIED', 'UNSPECIFIED', '' ) ;
#395 = APPROVAL_STATUS ( 'not_yet_approved' ) ;
#396 = VERTEX_POINT ( 'NONE', #154 ) ;
#397 = PERSON_AND_ORGANIZATION_ROLE ( 'classification_officer' ) ;
#398 = DIRECTION ( 'NONE',  ( 0.000000000000000000, 0.000000000000000000, -1.000000000000000000 ) ) ;
#399 = ORIENTED_EDGE ( 'NONE', *, *, #36, .F. ) ;
#400 = VERTEX_POINT ( 'NONE', #421 ) ;
#401 = APPROVAL_PERSON_ORGANIZATION ( #328, #111, #291 ) ;
#402 = EDGE_CURVE ( 'NONE', #365, #191, #187, .T. ) ;
#403 = EDGE_LOOP ( 'NONE', ( #148, #264, #270, #357 ) ) ;
#404 = DIRECTION ( 'NONE',  ( 0.000000000000000000, 0.000000000000000000, 1.000000000000000000 ) ) ;
#405 = CC_DESIGN_DATE_AND_TIME_ASSIGNMENT ( #320, #81, ( #149 ) ) ;
#406 = DIRECTION ( 'NONE',  ( 0.000000000000000000, 0.000000000000000000, 1.000000000000000000 ) ) ;
#407 = AXIS2_PLACEMENT_3D ( 'NONE', #176, #314, #184 ) ;
#408 = VECTOR ( 'NONE', #39, 1000.000000000000000 ) ;
#409 = LINE ( 'NONE', #169, #128 ) ;
#410 = DIRECTION ( 'NONE',  ( 0.000000000000000000, 0.000000000000000000, 1.000000000000000000 ) ) ;
#411 = CARTESIAN_POINT ( 'NONE',  ( -16.64708581120227038, 0.000000000000000000, 0.000000000000000000 ) ) ;
#412 = DIRECTION ( 'NONE',  ( 0.000000000000000000, 0.000000000000000000, 1.000000000000000000 ) ) ;
#413 = CARTESIAN_POINT ( 'NONE',  ( 6.499999999999999112, 0.000000000000000000, 0.000000000000000000 ) ) ;
#414 = EDGE_CURVE ( 'NONE', #50, #153, #239, .T. ) ;
#415 = CARTESIAN_POINT ( 'NONE',  ( 6.499999999999999112, 0.000000000000000000, 0.000000000000000000 ) ) ;
#416 = CARTESIAN_POINT ( 'NONE',  ( 16.00000000000000000, 0.000000000000000000, 0.000000000000000000 ) ) ;
#417 = CC_DESIGN_APPROVAL ( #63, ( #136 ) ) ;
#418 = EDGE_LOOP ( 'NONE', ( #221, #343, #55, #124 ) ) ;
#419 = DIRECTION ( 'NONE',  ( -1.000000000000000000, -0.000000000000000000, -0.000000000000000000 ) ) ;
#420 = DIRECTION ( 'NONE',  ( 0.000000000000000000, 0.000000000000000000, 1.000000000000000000 ) ) ;
#421 = CARTESIAN_POINT ( 'NONE',  ( 1.000000000000000888, 0.000000000000000000, -8.000000000000000000 ) ) ;
#422 = VECTOR ( 'NONE', #206, 1000.000000000000000 ) ;
#423 = ORIENTED_EDGE ( 'NONE', *, *, #9, .F. ) ;
#424 = APPROVAL_DATE_TIME ( #297, #63 ) ;
#425 = ORIENTED_EDGE ( 'NONE', *, *, #295, .F. ) ;
#426 = COORDINATED_UNIVERSAL_TIME_OFFSET ( 1, 0, .AHEAD. ) ;
#427 = ADVANCED_FACE ( 'NONE', ( #265 ), #273, .T. ) ;
#428 = EDGE_LOOP ( 'NONE', ( #129, #223 ) ) ;
#429 = ORIENTED_EDGE ( 'NONE', *, *, #324, .T. ) ;
ENDSEC;
END-ISO-10303-21;
