ISO-10303-21;
HEADER;
FILE_DESCRIPTION (( 'STEP AP203' ),
    '1' );
FILE_NAME ('3D_R1650_48.3x2_17351280.STEP',
    '2024-08-03T08:55:26',
    ( '' ),
    ( '' ),
    'SwSTEP 2.0',
    'SolidWorks 2024',
    '' );
FILE_SCHEMA (( 'CONFIG_CONTROL_DESIGN' ));
ENDSEC;

DATA;
#1 = LOCAL_TIME ( 10, 55, 26.00000000000000000, #74 ) ;
#2 = ORIENTED_EDGE ( 'NONE', *, *, #235, .F. ) ;
#3 = DIRECTION ( 'NONE',  ( 1.000000000000000000, 0.000000000000000000, -1.110223024625156540E-16 ) ) ;
#4 = DIRECTION ( 'NONE',  ( 0.000000000000000000, 1.000000000000000000, 0.000000000000000000 ) ) ;
#5 = CC_DESIGN_DATE_AND_TIME_ASSIGNMENT ( #40, #236, ( #202 ) ) ;
#6 = EDGE_LOOP ( 'NONE', ( #93, #192, #213, #113 ) ) ;
#7 = FACE_OUTER_BOUND ( 'NONE', #234, .T. ) ;
#8 = DIRECTION ( 'NONE',  ( 0.000000000000000000, 0.000000000000000000, 1.000000000000000000 ) ) ;
#9 =( NAMED_UNIT ( * ) SI_UNIT ( $, .STERADIAN. ) SOLID_ANGLE_UNIT ( ) );
#10 = AXIS2_PLACEMENT_3D ( 'NONE', #43, #83, #3 ) ;
#11 = UNCERTAINTY_MEASURE_WITH_UNIT (LENGTH_MEASURE( 1.000000000000000082E-05 ), #228, 'distance_accuracy_value', 'NONE');
#12 = PERSON_AND_ORGANIZATION ( #205, #135 ) ;
#13 = CC_DESIGN_APPROVAL ( #172, ( #25 ) ) ;
#14 = APPLICATION_PROTOCOL_DEFINITION ( 'international standard', 'config_control_design', 1994, #89 ) ;
#15 = PERSON_AND_ORGANIZATION ( #205, #135 ) ;
#16 = SHAPE_DEFINITION_REPRESENTATION ( #20, #190 ) ;
#17 = EDGE_CURVE ( 'NONE', #187, #58, #150, .T. ) ;
#18 = ORIENTED_EDGE ( 'NONE', *, *, #17, .F. ) ;
#19 = EDGE_LOOP ( 'NONE', ( #136, #21 ) ) ;
#20 = PRODUCT_DEFINITION_SHAPE ( 'NONE', 'NONE',  #25 ) ;
#21 = ORIENTED_EDGE ( 'NONE', *, *, #133, .F. ) ;
#22 = CARTESIAN_POINT ( 'NONE',  ( -56.99999999999998579, 0.000000000000000000, -1.040834085586084257E-14 ) ) ;
#23 = AXIS2_PLACEMENT_3D ( 'NONE', #117, #240, #67 ) ;
#24 = ORIENTED_EDGE ( 'NONE', *, *, #75, .T. ) ;
#25 = PRODUCT_DEFINITION ( 'UNKNOWN', '', #244, #122 ) ;
#26 = APPROVAL_PERSON_ORGANIZATION ( #53, #172, #243 ) ;
#27 = CARTESIAN_POINT ( 'NONE',  ( 0.000000000000000000, 0.000000000000000000, 0.000000000000000000 ) ) ;
#28 = ORIENTED_EDGE ( 'NONE', *, *, #198, .F. ) ;
#29 = APPROVAL_ROLE ( '' ) ;
#30 = DIRECTION ( 'NONE',  ( 1.000000000000000000, 0.000000000000000000, -1.110223024625156540E-16 ) ) ;
#31 = APPLICATION_PROTOCOL_DEFINITION ( 'international standard', 'config_control_design', 1994, #125 ) ;
#32 = CIRCLE ( 'NONE', #104, 22.14999999999999503 ) ;
#33 = CARTESIAN_POINT ( 'NONE',  ( 0.000000000000000000, 0.000000000000000000, 0.000000000000000000 ) ) ;
#34 = ADVANCED_FACE ( 'NONE', ( #173 ), #64, .F. ) ;
#35 = CC_DESIGN_SECURITY_CLASSIFICATION ( #202, ( #244 ) ) ;
#36 = TOROIDAL_SURFACE ( 'NONE', #46, 56.99999999999999289, 24.14999999999999858 ) ;
#37 = ORIENTED_EDGE ( 'NONE', *, *, #235, .T. ) ;
#38 = PERSON_AND_ORGANIZATION_ROLE ( 'classification_officer' ) ;
#39 = ORIENTED_EDGE ( 'NONE', *, *, #227, .F. ) ;
#40 = DATE_AND_TIME ( #154, #156 ) ;
#41 = VERTEX_POINT ( 'NONE', #97 ) ;
#42 = EDGE_CURVE ( 'NONE', #41, #187, #44, .T. ) ;
#43 = CARTESIAN_POINT ( 'NONE',  ( -56.99999999999999289, 0.000000000000000000, 6.328271240363391492E-15 ) ) ;
#44 = CIRCLE ( 'NONE', #207, 24.14999999999999858 ) ;
#45 = CARTESIAN_POINT ( 'NONE',  ( -79.14999999999999147, 0.000000000000000000, 8.787415239908113071E-15 ) ) ;
#46 = AXIS2_PLACEMENT_3D ( 'NONE', #33, #225, #8 ) ;
#47 = EDGE_CURVE ( 'NONE', #68, #112, #186, .T. ) ;
#48 = DIRECTION ( 'NONE',  ( 0.000000000000000000, 1.000000000000000000, 0.000000000000000000 ) ) ;
#49 = APPROVAL_PERSON_ORGANIZATION ( #170, #111, #56 ) ;
#50 = DIRECTION ( 'NONE',  ( -0.7071067811865436870, 0.000000000000000000, 0.7071067811865513475 ) ) ;
#51 = PERSON_AND_ORGANIZATION_ROLE ( 'design_owner' ) ;
#52 = DIRECTION ( 'NONE',  ( 1.110223024625156540E-16, 0.000000000000000000, 1.000000000000000000 ) ) ;
#53 = PERSON_AND_ORGANIZATION ( #205, #135 ) ;
#54 = ADVANCED_FACE ( 'NONE', ( #99, #80 ), #100, .F. ) ;
#55 = CARTESIAN_POINT ( 'NONE',  ( -40.30508652763342070, 0.000000000000000000, -40.30508652763298727 ) ) ;
#56 = APPROVAL_ROLE ( '' ) ;
#57 = AXIS2_PLACEMENT_3D ( 'NONE', #239, #221, #162 ) ;
#58 = VERTEX_POINT ( 'NONE', #137 ) ;
#59 = CC_DESIGN_APPROVAL ( #251, ( #244 ) ) ;
#60 = CALENDAR_DATE ( 2024, 3, 8 ) ;
#61 = ORIENTED_EDGE ( 'NONE', *, *, #227, .T. ) ;
#62 = DIRECTION ( 'NONE',  ( 0.000000000000000000, 0.000000000000000000, 1.000000000000000000 ) ) ;
#63 = DIRECTION ( 'NONE',  ( 0.7071067811865512365, 0.000000000000000000, 0.7071067811865437980 ) ) ;
#64 = TOROIDAL_SURFACE ( 'NONE', #128, 56.99999999999999289, 22.14999999999999503 ) ;
#65 = CC_DESIGN_PERSON_AND_ORGANIZATION_ASSIGNMENT ( #146, #51, ( #193 ) ) ;
#66 = DIRECTION ( 'NONE',  ( 1.110223024625156787E-16, 0.000000000000000000, 1.000000000000000000 ) ) ;
#67 = DIRECTION ( 'NONE',  ( 0.000000000000000000, 0.000000000000000000, 1.000000000000000000 ) ) ;
#68 = VERTEX_POINT ( 'NONE', #159 ) ;
#69 = AXIS2_PLACEMENT_3D ( 'NONE', #210, #73, #166 ) ;
#70 = CALENDAR_DATE ( 2024, 3, 8 ) ;
#71 = APPROVAL_STATUS ( 'not_yet_approved' ) ;
#72 = CIRCLE ( 'NONE', #212, 24.14999999999999858 ) ;
#73 = DIRECTION ( 'NONE',  ( 0.000000000000000000, 0.000000000000000000, 1.000000000000000000 ) ) ;
#74 = COORDINATED_UNIVERSAL_TIME_OFFSET ( 1, 0, .AHEAD. ) ;
#75 = EDGE_CURVE ( 'NONE', #77, #112, #246, .T. ) ;
#76 = DATE_AND_TIME ( #102, #167 ) ;
#77 = VERTEX_POINT ( 'NONE', #242 ) ;
#78 = AXIS2_PLACEMENT_3D ( 'NONE', #82, #226, #145 ) ;
#79 = PERSON_AND_ORGANIZATION ( #205, #135 ) ;
#80 = FACE_OUTER_BOUND ( 'NONE', #19, .T. ) ;
#81 = CARTESIAN_POINT ( 'NONE',  ( 0.000000000000000000, 0.000000000000000000, 0.000000000000000000 ) ) ;
#82 = CARTESIAN_POINT ( 'NONE',  ( 0.000000000000000000, -2.957522019940857930E-15, 0.000000000000000000 ) ) ;
#83 = DIRECTION ( 'NONE',  ( 1.110223024625156540E-16, 0.000000000000000000, 1.000000000000000000 ) ) ;
#84 = CARTESIAN_POINT ( 'NONE',  ( -40.30508652763342070, 0.000000000000000000, -40.30508652763298727 ) ) ;
#85 = DIRECTION ( 'NONE',  ( 1.110223024625156540E-16, 0.000000000000000000, 1.000000000000000000 ) ) ;
#86 = CLOSED_SHELL ( 'NONE', ( #34, #223, #88, #151, #54, #194 ) ) ;
#87 = AXIS2_PLACEMENT_3D ( 'NONE', #203, #196, #63 ) ;
#88 = ADVANCED_FACE ( 'NONE', ( #7 ), #174, .T. ) ;
#89 = APPLICATION_CONTEXT ( 'configuration controlled 3d designs of mechanical parts and assemblies' ) ;
#90 = CARTESIAN_POINT ( 'NONE',  ( -56.99999999999999289, 0.000000000000000000, 6.328271240363391492E-15 ) ) ;
#91 = APPROVAL_PERSON_ORGANIZATION ( #12, #251, #29 ) ;
#92 = MECHANICAL_CONTEXT ( 'NONE', #89, 'mechanical' ) ;
#93 = ORIENTED_EDGE ( 'NONE', *, *, #75, .F. ) ;
#94 = EDGE_CURVE ( 'NONE', #77, #189, #32, .T. ) ;
#95 = ORIENTED_EDGE ( 'NONE', *, *, #208, .T. ) ;
#96 = LOCAL_TIME ( 10, 55, 26.00000000000000000, #147 ) ;
#97 = CARTESIAN_POINT ( 'NONE',  ( -23.22845776197820200, -2.957522019940857930E-15, -23.22845776197796752 ) ) ;
#98 = AXIS2_PLACEMENT_3D ( 'NONE', #217, #158, #114 ) ;
#99 = FACE_BOUND ( 'NONE', #216, .T. ) ;
#100 = PLANE ( 'NONE',  #57 ) ;
#101 = DIRECTION ( 'NONE',  ( 0.000000000000000000, 1.000000000000000000, 0.000000000000000000 ) ) ;
#102 = CALENDAR_DATE ( 2024, 3, 8 ) ;
#103 = EDGE_CURVE ( 'NONE', #189, #68, #165, .T. ) ;
#104 = AXIS2_PLACEMENT_3D ( 'NONE', #84, #50, #163 ) ;
#105 = PERSON_AND_ORGANIZATION ( #205, #135 ) ;
#106 =( GEOMETRIC_REPRESENTATION_CONTEXT ( 3 ) GLOBAL_UNCERTAINTY_ASSIGNED_CONTEXT ( ( #11 ) ) GLOBAL_UNIT_ASSIGNED_CONTEXT ( ( #228, #209, #9 ) ) REPRESENTATION_CONTEXT ( 'NONE', 'WORKASPACE' ) );
#107 = ORIENTED_EDGE ( 'NONE', *, *, #208, .F. ) ;
#108 = SECURITY_CLASSIFICATION_LEVEL ( 'unclassified' ) ;
#109 = DATE_AND_TIME ( #60, #185 ) ;
#110 = ORIENTED_EDGE ( 'NONE', *, *, #133, .T. ) ;
#111 = APPROVAL ( #153, 'UNSPECIFIED' ) ;
#112 = VERTEX_POINT ( 'NONE', #45 ) ;
#113 = ORIENTED_EDGE ( 'NONE', *, *, #47, .T. ) ;
#114 = DIRECTION ( 'NONE',  ( 0.000000000000000000, 0.000000000000000000, 1.000000000000000000 ) ) ;
#115 = FACE_OUTER_BOUND ( 'NONE', #211, .T. ) ;
#116 = CIRCLE ( 'NONE', #182, 22.14999999999999503 ) ;
#117 = CARTESIAN_POINT ( 'NONE',  ( 0.000000000000000000, -2.712592660111386845E-15, 0.000000000000000000 ) ) ;
#118 = CARTESIAN_POINT ( 'NONE',  ( -24.64267132435131558, -2.712592660111386845E-15, -24.64267132435104912 ) ) ;
#119 = ORIENTED_EDGE ( 'NONE', *, *, #42, .T. ) ;
#120 = DATE_AND_TIME ( #70, #1 ) ;
#121 = DIRECTION ( 'NONE',  ( 1.000000000000000000, 0.000000000000000000, -1.110223024625156787E-16 ) ) ;
#122 = DESIGN_CONTEXT ( 'detailed design', #125, 'design' ) ;
#123 = DATE_TIME_ROLE ( 'creation_date' ) ;
#124 = CALENDAR_DATE ( 2024, 3, 8 ) ;
#125 = APPLICATION_CONTEXT ( 'configuration controlled 3d designs of mechanical parts and assemblies' ) ;
#126 = DIRECTION ( 'NONE',  ( -0.7071067811865436870, 0.000000000000000000, 0.7071067811865513475 ) ) ;
#127 = PRODUCT_RELATED_PRODUCT_CATEGORY ( 'detail', '', ( #193 ) ) ;
#128 = AXIS2_PLACEMENT_3D ( 'NONE', #27, #161, #144 ) ;
#129 = EDGE_LOOP ( 'NONE', ( #119, #215, #39, #28 ) ) ;
#130 = ORIENTED_EDGE ( 'NONE', *, *, #47, .F. ) ;
#131 = TOROIDAL_SURFACE ( 'NONE', #152, 56.99999999999999289, 22.14999999999999503 ) ;
#132 = ORIENTED_EDGE ( 'NONE', *, *, #198, .T. ) ;
#133 = EDGE_CURVE ( 'NONE', #187, #41, #199, .T. ) ;
#134 = ORIENTED_EDGE ( 'NONE', *, *, #94, .T. ) ;
#135 = ORGANIZATION ( 'UNSPECIFIED', 'UNSPECIFIED', '' ) ;
#136 = ORIENTED_EDGE ( 'NONE', *, *, #42, .F. ) ;
#137 = CARTESIAN_POINT ( 'NONE',  ( -81.15000000000000568, 0.000000000000000000, -7.727152251391088890E-15 ) ) ;
#138 = FACE_BOUND ( 'NONE', #157, .T. ) ;
#139 = AXIS2_PLACEMENT_3D ( 'NONE', #175, #4, #62 ) ;
#140 = DIRECTION ( 'NONE',  ( 1.000000000000000000, 0.000000000000000000, -1.110223024625156787E-16 ) ) ;
#141 = AXIS2_PLACEMENT_3D ( 'NONE', #181, #85, #148 ) ;
#142 = CARTESIAN_POINT ( 'NONE',  ( -40.30508652763341360, 0.000000000000000000, -40.30508652763299438 ) ) ;
#143 = CC_DESIGN_PERSON_AND_ORGANIZATION_ASSIGNMENT ( #79, #230, ( #244 ) ) ;
#144 = DIRECTION ( 'NONE',  ( 0.000000000000000000, 0.000000000000000000, 1.000000000000000000 ) ) ;
#145 = DIRECTION ( 'NONE',  ( 0.000000000000000000, 0.000000000000000000, 1.000000000000000000 ) ) ;
#146 = PERSON_AND_ORGANIZATION ( #205, #135 ) ;
#147 = COORDINATED_UNIVERSAL_TIME_OFFSET ( 1, 0, .AHEAD. ) ;
#148 = DIRECTION ( 'NONE',  ( 1.000000000000000000, 0.000000000000000000, -1.110223024625156787E-16 ) ) ;
#149 = CC_DESIGN_PERSON_AND_ORGANIZATION_ASSIGNMENT ( #253, #188, ( #244 ) ) ;
#150 = CIRCLE ( 'NONE', #139, 81.15000000000000568 ) ;
#151 = ADVANCED_FACE ( 'NONE', ( #138, #115 ), #197, .T. ) ;
#152 = AXIS2_PLACEMENT_3D ( 'NONE', #201, #101, #178 ) ;
#153 = APPROVAL_STATUS ( 'not_yet_approved' ) ;
#154 = CALENDAR_DATE ( 2024, 3, 8 ) ;
#155 = VERTEX_POINT ( 'NONE', #218 ) ;
#156 = LOCAL_TIME ( 10, 55, 26.00000000000000000, #231 ) ;
#157 = EDGE_LOOP ( 'NONE', ( #130, #2 ) ) ;
#158 = DIRECTION ( 'NONE',  ( 0.000000000000000000, 1.000000000000000000, 0.000000000000000000 ) ) ;
#159 = CARTESIAN_POINT ( 'NONE',  ( -34.85000000000000142, 0.000000000000000000, 3.869127240818670701E-15 ) ) ;
#160 = CC_DESIGN_PERSON_AND_ORGANIZATION_ASSIGNMENT ( #15, #38, ( #202 ) ) ;
#161 = DIRECTION ( 'NONE',  ( 0.000000000000000000, 1.000000000000000000, 0.000000000000000000 ) ) ;
#162 = DIRECTION ( 'NONE',  ( 0.7071067811865513475, 0.000000000000000000, 0.7071067811865436870 ) ) ;
#163 = DIRECTION ( 'NONE',  ( 0.7071067811865513475, 0.000000000000000000, 0.7071067811865436870 ) ) ;
#164 = MANIFOLD_SOLID_BREP ( 'Wandung1', #86 ) ;
#165 = CIRCLE ( 'NONE', #23, 34.85000000000000142 ) ;
#166 = DIRECTION ( 'NONE',  ( 1.000000000000000000, 0.000000000000000000, 0.000000000000000000 ) ) ;
#167 = LOCAL_TIME ( 10, 55, 26.00000000000000000, #249 ) ;
#168 = CC_DESIGN_PERSON_AND_ORGANIZATION_ASSIGNMENT ( #105, #183, ( #25 ) ) ;
#169 = APPROVAL_DATE_TIME ( #76, #251 ) ;
#170 = PERSON_AND_ORGANIZATION ( #205, #135 ) ;
#171 = AXIS2_PLACEMENT_3D ( 'NONE', #81, #48, #220 ) ;
#172 = APPROVAL ( #245, 'UNSPECIFIED' ) ;
#173 = FACE_OUTER_BOUND ( 'NONE', #238, .T. ) ;
#174 = TOROIDAL_SURFACE ( 'NONE', #171, 56.99999999999999289, 24.14999999999999858 ) ;
#175 = CARTESIAN_POINT ( 'NONE',  ( 0.000000000000000000, 0.000000000000000000, 0.000000000000000000 ) ) ;
#176 = CC_DESIGN_DATE_AND_TIME_ASSIGNMENT ( #184, #123, ( #25 ) ) ;
#177 = FACE_OUTER_BOUND ( 'NONE', #6, .T. ) ;
#178 = DIRECTION ( 'NONE',  ( 0.000000000000000000, 0.000000000000000000, 1.000000000000000000 ) ) ;
#179 = DIRECTION ( 'NONE',  ( 0.7071067811865512365, 0.000000000000000000, 0.7071067811865437980 ) ) ;
#180 = CARTESIAN_POINT ( 'NONE',  ( -56.99999999999998579, 0.000000000000000000, -1.040834085586084257E-14 ) ) ;
#181 = CARTESIAN_POINT ( 'NONE',  ( -56.99999999999998579, 0.000000000000000000, -1.040834085586084257E-14 ) ) ;
#182 = AXIS2_PLACEMENT_3D ( 'NONE', #90, #224, #30 ) ;
#183 = PERSON_AND_ORGANIZATION_ROLE ( 'creator' ) ;
#184 = DATE_AND_TIME ( #124, #96 ) ;
#185 = LOCAL_TIME ( 10, 55, 26.00000000000000000, #250 ) ;
#186 = CIRCLE ( 'NONE', #10, 22.14999999999999503 ) ;
#187 = VERTEX_POINT ( 'NONE', #200 ) ;
#188 = PERSON_AND_ORGANIZATION_ROLE ( 'design_supplier' ) ;
#189 = VERTEX_POINT ( 'NONE', #118 ) ;
#190 = ADVANCED_BREP_SHAPE_REPRESENTATION ( '3D_R1650_48.3x2_17351280', ( #164, #69 ), #106 ) ;
#191 = ORIENTED_EDGE ( 'NONE', *, *, #247, .T. ) ;
#192 = ORIENTED_EDGE ( 'NONE', *, *, #247, .F. ) ;
#193 = PRODUCT ( '3D_R1650_48.3x2_17351280', '3D_R1650_48.3x2_17351280', '', ( #92 ) ) ;
#194 = ADVANCED_FACE ( 'NONE', ( #177 ), #131, .F. ) ;
#195 = ORIENTED_EDGE ( 'NONE', *, *, #103, .F. ) ;
#196 = DIRECTION ( 'NONE',  ( -0.7071067811865436870, 0.000000000000000000, 0.7071067811865513475 ) ) ;
#197 = PLANE ( 'NONE',  #232 ) ;
#198 = EDGE_CURVE ( 'NONE', #41, #155, #219, .T. ) ;
#199 = CIRCLE ( 'NONE', #87, 24.14999999999999858 ) ;
#200 = CARTESIAN_POINT ( 'NONE',  ( -57.38171529328863585, 0.000000000000000000, -57.38171529328803189 ) ) ;
#201 = CARTESIAN_POINT ( 'NONE',  ( 0.000000000000000000, 0.000000000000000000, 0.000000000000000000 ) ) ;
#202 = SECURITY_CLASSIFICATION ( '', '', #108 ) ;
#203 = CARTESIAN_POINT ( 'NONE',  ( -40.30508652763341360, 0.000000000000000000, -40.30508652763299438 ) ) ;
#204 = APPROVAL_DATE_TIME ( #120, #172 ) ;
#205 = PERSON ( 'UNSPECIFIED', 'UNSPECIFIED', 'UNSPECIFIED', ('UNSPECIFIED'), ('UNSPECIFIED'), ('UNSPECIFIED') ) ;
#206 = DIRECTION ( 'NONE',  ( 0.7071067811865513475, 0.000000000000000000, 0.7071067811865436870 ) ) ;
#207 = AXIS2_PLACEMENT_3D ( 'NONE', #142, #241, #179 ) ;
#208 = EDGE_CURVE ( 'NONE', #58, #155, #252, .T. ) ;
#209 =( NAMED_UNIT ( * ) PLANE_ANGLE_UNIT ( ) SI_UNIT ( $, .RADIAN. ) );
#210 = CARTESIAN_POINT ( 'NONE',  ( 0.000000000000000000, 0.000000000000000000, 0.000000000000000000 ) ) ;
#211 = EDGE_LOOP ( 'NONE', ( #61, #95 ) ) ;
#212 = AXIS2_PLACEMENT_3D ( 'NONE', #180, #52, #121 ) ;
#213 = ORIENTED_EDGE ( 'NONE', *, *, #103, .T. ) ;
#214 = APPROVAL_DATE_TIME ( #109, #111 ) ;
#215 = ORIENTED_EDGE ( 'NONE', *, *, #17, .T. ) ;
#216 = EDGE_LOOP ( 'NONE', ( #191, #134 ) ) ;
#217 = CARTESIAN_POINT ( 'NONE',  ( 0.000000000000000000, 0.000000000000000000, 0.000000000000000000 ) ) ;
#218 = CARTESIAN_POINT ( 'NONE',  ( -32.84999999999998721, 0.000000000000000000, -1.308952946033059624E-14 ) ) ;
#219 = CIRCLE ( 'NONE', #78, 32.84999999999999432 ) ;
#220 = DIRECTION ( 'NONE',  ( 0.000000000000000000, 0.000000000000000000, 1.000000000000000000 ) ) ;
#221 = DIRECTION ( 'NONE',  ( -0.7071067811865436870, 0.000000000000000000, 0.7071067811865513475 ) ) ;
#222 = CC_DESIGN_APPROVAL ( #111, ( #202 ) ) ;
#223 = ADVANCED_FACE ( 'NONE', ( #229 ), #36, .T. ) ;
#224 = DIRECTION ( 'NONE',  ( 1.110223024625156540E-16, 0.000000000000000000, 1.000000000000000000 ) ) ;
#225 = DIRECTION ( 'NONE',  ( 0.000000000000000000, 1.000000000000000000, 0.000000000000000000 ) ) ;
#226 = DIRECTION ( 'NONE',  ( 0.000000000000000000, 1.000000000000000000, 0.000000000000000000 ) ) ;
#227 = EDGE_CURVE ( 'NONE', #155, #58, #72, .T. ) ;
#228 =( LENGTH_UNIT ( ) NAMED_UNIT ( * ) SI_UNIT ( .MILLI., .METRE. ) );
#229 = FACE_OUTER_BOUND ( 'NONE', #129, .T. ) ;
#230 = PERSON_AND_ORGANIZATION_ROLE ( 'creator' ) ;
#231 = COORDINATED_UNIVERSAL_TIME_OFFSET ( 1, 0, .AHEAD. ) ;
#232 = AXIS2_PLACEMENT_3D ( 'NONE', #22, #66, #140 ) ;
#233 = ORIENTED_EDGE ( 'NONE', *, *, #94, .F. ) ;
#234 = EDGE_LOOP ( 'NONE', ( #18, #110, #132, #107 ) ) ;
#235 = EDGE_CURVE ( 'NONE', #112, #68, #116, .T. ) ;
#236 = DATE_TIME_ROLE ( 'classification_date' ) ;
#237 = CIRCLE ( 'NONE', #248, 22.14999999999999503 ) ;
#238 = EDGE_LOOP ( 'NONE', ( #233, #24, #37, #195 ) ) ;
#239 = CARTESIAN_POINT ( 'NONE',  ( -40.30508652763341360, 0.000000000000000000, -40.30508652763299438 ) ) ;
#240 = DIRECTION ( 'NONE',  ( 0.000000000000000000, 1.000000000000000000, 0.000000000000000000 ) ) ;
#241 = DIRECTION ( 'NONE',  ( -0.7071067811865436870, 0.000000000000000000, 0.7071067811865513475 ) ) ;
#242 = CARTESIAN_POINT ( 'NONE',  ( -55.96750173091553648, 0.000000000000000000, -55.96750173091492542 ) ) ;
#243 = APPROVAL_ROLE ( '' ) ;
#244 = PRODUCT_DEFINITION_FORMATION_WITH_SPECIFIED_SOURCE ( 'ANY', '', #193, .NOT_KNOWN. ) ;
#245 = APPROVAL_STATUS ( 'not_yet_approved' ) ;
#246 = CIRCLE ( 'NONE', #98, 79.14999999999999147 ) ;
#247 = EDGE_CURVE ( 'NONE', #189, #77, #237, .T. ) ;
#248 = AXIS2_PLACEMENT_3D ( 'NONE', #55, #126, #206 ) ;
#249 = COORDINATED_UNIVERSAL_TIME_OFFSET ( 1, 0, .AHEAD. ) ;
#250 = COORDINATED_UNIVERSAL_TIME_OFFSET ( 1, 0, .AHEAD. ) ;
#251 = APPROVAL ( #71, 'UNSPECIFIED' ) ;
#252 = CIRCLE ( 'NONE', #141, 24.14999999999999858 ) ;
#253 = PERSON_AND_ORGANIZATION ( #205, #135 ) ;
ENDSEC;
END-ISO-10303-21;
