ISO-10303-21;
HEADER;
FILE_DESCRIPTION (( 'STEP AP203' ),
    '1' );
FILE_NAME ('3D-LR-131-SE_14-10_17106510.STEP',
    '2024-09-02T20:22:44',
    ( '' ),
    ( '' ),
    'SwSTEP 2.0',
    'SolidWorks 2024',
    '' );
FILE_SCHEMA (( 'CONFIG_CONTROL_DESIGN' ));
ENDSEC;

DATA;
#1 = FACE_OUTER_BOUND ( 'NONE', #178, .T. ) ;
#2 = DIRECTION ( 'NONE',  ( -1.000000000000000000, -0.000000000000000000, -0.000000000000000000 ) ) ;
#3 = AXIS2_PLACEMENT_3D ( 'NONE', #219, #273, #210 ) ;
#4 = VECTOR ( 'NONE', #357, 1000.000000000000000 ) ;
#5 = LINE ( 'NONE', #8, #158 ) ;
#6 = CC_DESIGN_DATE_AND_TIME_ASSIGNMENT ( #49, #186, ( #283 ) ) ;
#7 = DIRECTION ( 'NONE',  ( -1.000000000000000000, -0.000000000000000000, -0.000000000000000000 ) ) ;
#8 = CARTESIAN_POINT ( 'NONE',  ( -36.70332301863295754, 0.000000000000000000, 8.500000000000000000 ) ) ;
#9 = AXIS2_PLACEMENT_3D ( 'NONE', #185, #249, #106 ) ;
#10 = CIRCLE ( 'NONE', #109, 7.000000000000000000 ) ;
#11 = CIRCLE ( 'NONE', #328, 5.000000000000002665 ) ;
#12 = APPROVAL_ROLE ( '' ) ;
#13 = DIRECTION ( 'NONE',  ( 1.000000000000000000, 0.000000000000000000, 0.000000000000000000 ) ) ;
#14 = LINE ( 'NONE', #420, #27 ) ;
#15 = CARTESIAN_POINT ( 'NONE',  ( -36.70332301863295754, 0.000000000000000000, 9.999999999999998224 ) ) ;
#16 = ORIENTED_EDGE ( 'NONE', *, *, #417, .F. ) ;
#17 = CARTESIAN_POINT ( 'NONE',  ( 1.499999999999994449, 0.000000000000000000, 0.000000000000000000 ) ) ;
#18 = CARTESIAN_POINT ( 'NONE',  ( -5.035509528937311075, 0.000000000000000000, 8.500000000000000000 ) ) ;
#19 = CC_DESIGN_APPROVAL ( #52, ( #323 ) ) ;
#20 = CARTESIAN_POINT ( 'NONE',  ( -6.500000000000002665, 0.000000000000000000, 9.999999999999998224 ) ) ;
#21 = DIRECTION ( 'NONE',  ( 0.000000000000000000, 0.000000000000000000, 1.000000000000000000 ) ) ;
#22 = AXIS2_PLACEMENT_3D ( 'NONE', #55, #223, #191 ) ;
#23 = ADVANCED_FACE ( 'NONE', ( #280 ), #131, .T. ) ;
#24 = PLANE ( 'NONE',  #159 ) ;
#25 = PERSON_AND_ORGANIZATION_ROLE ( 'creator' ) ;
#26 = ORIENTED_EDGE ( 'NONE', *, *, #183, .T. ) ;
#27 = VECTOR ( 'NONE', #92, 1000.000000000000000 ) ;
#28 = ADVANCED_FACE ( 'NONE', ( #117 ), #76, .T. ) ;
#29 = AXIS2_PLACEMENT_3D ( 'NONE', #390, #161, #124 ) ;
#30 = VERTEX_POINT ( 'NONE', #111 ) ;
#31 = PERSON_AND_ORGANIZATION_ROLE ( 'design_supplier' ) ;
#32 = ORIENTED_EDGE ( 'NONE', *, *, #62, .T. ) ;
#33 = APPLICATION_CONTEXT ( 'configuration controlled 3d designs of mechanical parts and assemblies' ) ;
#34 = COORDINATED_UNIVERSAL_TIME_OFFSET ( 1, 0, .AHEAD. ) ;
#35 = EDGE_LOOP ( 'NONE', ( #339, #364, #405, #103 ) ) ;
#36 = AXIS2_PLACEMENT_3D ( 'NONE', #374, #120, #325 ) ;
#37 = ORIENTED_EDGE ( 'NONE', *, *, #213, .F. ) ;
#38 = CIRCLE ( 'NONE', #281, 5.000000000000002665 ) ;
#39 = EDGE_CURVE ( 'NONE', #168, #149, #112, .T. ) ;
#40 = PRODUCT ( '3D-LR-131-SE_14-10_17106510', '3D-LR-131-SE_14-10_17106510', '', ( #190 ) ) ;
#41 = CARTESIAN_POINT ( 'NONE',  ( -6.500000000000002665, 0.000000000000000000, 0.000000000000000000 ) ) ;
#42 = CARTESIAN_POINT ( 'NONE',  ( 6.499999999999999112, 0.000000000000000000, 5.000000000000002665 ) ) ;
#43 = VERTEX_POINT ( 'NONE', #45 ) ;
#44 = ADVANCED_FACE ( 'NONE', ( #271 ), #413, .T. ) ;
#45 = CARTESIAN_POINT ( 'NONE',  ( 1.499999999999994449, 1.040949779275250140E-15, -8.500000000000000000 ) ) ;
#46 = FACE_OUTER_BOUND ( 'NONE', #299, .T. ) ;
#47 = DIRECTION ( 'NONE',  ( 0.000000000000000000, 0.000000000000000000, 1.000000000000000000 ) ) ;
#48 = ORIENTED_EDGE ( 'NONE', *, *, #148, .T. ) ;
#49 = DATE_AND_TIME ( #54, #344 ) ;
#50 = CARTESIAN_POINT ( 'NONE',  ( -6.500000000000002665, 6.123233995736768255E-16, -5.000000000000000888 ) ) ;
#51 = AXIS2_PLACEMENT_3D ( 'NONE', #373, #346, #311 ) ;
#52 = APPROVAL ( #315, 'UNSPECIFIED' ) ;
#53 = AXIS2_PLACEMENT_3D ( 'NONE', #196, #156, #153 ) ;
#54 = CALENDAR_DATE ( 2024, 2, 9 ) ;
#55 = CARTESIAN_POINT ( 'NONE',  ( -5.300000000000006040, 0.000000000000000000, 0.000000000000000000 ) ) ;
#56 = DIRECTION ( 'NONE',  ( -1.000000000000000000, -0.000000000000000000, -0.000000000000000000 ) ) ;
#57 = CARTESIAN_POINT ( 'NONE',  ( -5.300000000000006040, 0.000000000000000000, 0.000000000000000000 ) ) ;
#58 = DIRECTION ( 'NONE',  ( -1.000000000000000000, -0.000000000000000000, -0.000000000000000000 ) ) ;
#59 = ADVANCED_FACE ( 'NONE', ( #81 ), #239, .T. ) ;
#60 = CARTESIAN_POINT ( 'NONE',  ( 0.000000000000000000, 0.000000000000000000, 0.000000000000000000 ) ) ;
#61 = FACE_OUTER_BOUND ( 'NONE', #101, .T. ) ;
#62 = EDGE_CURVE ( 'NONE', #260, #204, #314, .T. ) ;
#63 = PERSON_AND_ORGANIZATION ( #250, #130 ) ;
#64 = ORIENTED_EDGE ( 'NONE', *, *, #310, .F. ) ;
#65 = CC_DESIGN_APPROVAL ( #91, ( #283 ) ) ;
#66 = DATE_AND_TIME ( #221, #212 ) ;
#67 = ORIENTED_EDGE ( 'NONE', *, *, #108, .T. ) ;
#68 = CIRCLE ( 'NONE', #414, 9.999999999999998224 ) ;
#69 = EDGE_LOOP ( 'NONE', ( #142, #72 ) ) ;
#70 = CC_DESIGN_APPROVAL ( #305, ( #137 ) ) ;
#71 = UNCERTAINTY_MEASURE_WITH_UNIT (LENGTH_MEASURE( 1.000000000000000082E-05 ), #255, 'distance_accuracy_value', 'NONE');
#72 = ORIENTED_EDGE ( 'NONE', *, *, #148, .F. ) ;
#73 = AXIS2_PLACEMENT_3D ( 'NONE', #241, #382, #85 ) ;
#74 = ORIENTED_EDGE ( 'NONE', *, *, #183, .F. ) ;
#75 = CIRCLE ( 'NONE', #29, 7.000000000000000000 ) ;
#76 = CYLINDRICAL_SURFACE ( 'NONE', #352, 6.999999999999999112 ) ;
#77 = ADVANCED_FACE ( 'NONE', ( #78, #1 ), #211, .T. ) ;
#78 = FACE_BOUND ( 'NONE', #285, .T. ) ;
#79 = CIRCLE ( 'NONE', #277, 9.999999999999998224 ) ;
#80 = FACE_OUTER_BOUND ( 'NONE', #386, .T. ) ;
#81 = FACE_OUTER_BOUND ( 'NONE', #424, .T. ) ;
#82 = CIRCLE ( 'NONE', #174, 6.999999999999999112 ) ;
#83 = VECTOR ( 'NONE', #58, 1000.000000000000000 ) ;
#84 = DIRECTION ( 'NONE',  ( -1.000000000000000000, -0.000000000000000000, -0.000000000000000000 ) ) ;
#85 = DIRECTION ( 'NONE',  ( 0.000000000000000000, 0.000000000000000000, 1.000000000000000000 ) ) ;
#86 = EDGE_CURVE ( 'NONE', #237, #232, #304, .T. ) ;
#87 = COORDINATED_UNIVERSAL_TIME_OFFSET ( 1, 0, .AHEAD. ) ;
#88 = CARTESIAN_POINT ( 'NONE',  ( -36.70332301863295754, 1.040949779275250140E-15, -8.500000000000000000 ) ) ;
#89 =( NAMED_UNIT ( * ) SI_UNIT ( $, .STERADIAN. ) SOLID_ANGLE_UNIT ( ) );
#90 = CARTESIAN_POINT ( 'NONE',  ( -36.70332301863295754, 6.123233995736768255E-16, -5.000000000000001776 ) ) ;
#91 = APPROVAL ( #358, 'UNSPECIFIED' ) ;
#92 = DIRECTION ( 'NONE',  ( -0.1736481776669288879, 0.000000000000000000, 0.9848077530122083534 ) ) ;
#93 = DIRECTION ( 'NONE',  ( 0.000000000000000000, 0.000000000000000000, 1.000000000000000000 ) ) ;
#94 = LINE ( 'NONE', #354, #327 ) ;
#95 = AXIS2_PLACEMENT_3D ( 'NONE', #160, #286, #279 ) ;
#96 = CYLINDRICAL_SURFACE ( 'NONE', #53, 5.000000000000001776 ) ;
#97 = DATE_AND_TIME ( #426, #379 ) ;
#98 = ORIENTED_EDGE ( 'NONE', *, *, #197, .F. ) ;
#99 = ORIENTED_EDGE ( 'NONE', *, *, #164, .T. ) ;
#100 = VECTOR ( 'NONE', #7, 1000.000000000000000 ) ;
#101 = EDGE_LOOP ( 'NONE', ( #403, #276, #423, #74 ) ) ;
#102 = EDGE_CURVE ( 'NONE', #399, #237, #343, .T. ) ;
#103 = ORIENTED_EDGE ( 'NONE', *, *, #115, .F. ) ;
#104 = ORIENTED_EDGE ( 'NONE', *, *, #244, .F. ) ;
#105 = AXIS2_PLACEMENT_3D ( 'NONE', #409, #110, #242 ) ;
#106 = DIRECTION ( 'NONE',  ( 0.000000000000000000, 0.000000000000000000, -1.000000000000000000 ) ) ;
#107 = VECTOR ( 'NONE', #56, 1000.000000000000000 ) ;
#108 = EDGE_CURVE ( 'NONE', #204, #173, #296, .T. ) ;
#109 = AXIS2_PLACEMENT_3D ( 'NONE', #321, #194, #361 ) ;
#110 = DIRECTION ( 'NONE',  ( -1.000000000000000000, -0.000000000000000000, -0.000000000000000000 ) ) ;
#111 = CARTESIAN_POINT ( 'NONE',  ( -5.300000000000006040, 0.000000000000000000, 9.999999999999998224 ) ) ;
#112 = LINE ( 'NONE', #411, #324 ) ;
#113 = VECTOR ( 'NONE', #312, 1000.000000000000000 ) ;
#114 = DIRECTION ( 'NONE',  ( -1.000000000000000000, -0.000000000000000000, -0.000000000000000000 ) ) ;
#115 = EDGE_CURVE ( 'NONE', #165, #207, #5, .T. ) ;
#116 = DIRECTION ( 'NONE',  ( 0.000000000000000000, 0.000000000000000000, 1.000000000000000000 ) ) ;
#117 = FACE_OUTER_BOUND ( 'NONE', #371, .T. ) ;
#118 = PERSON_AND_ORGANIZATION ( #250, #130 ) ;
#119 = CARTESIAN_POINT ( 'NONE',  ( 1.499999999999994449, 8.572527594031472204E-16, -6.999999999999999112 ) ) ;
#120 = DIRECTION ( 'NONE',  ( -1.000000000000000000, -0.000000000000000000, -0.000000000000000000 ) ) ;
#121 = LINE ( 'NONE', #90, #83 ) ;
#122 = ADVANCED_FACE ( 'NONE', ( #46 ), #143, .T. ) ;
#123 = DIRECTION ( 'NONE',  ( 0.000000000000000000, 0.000000000000000000, 1.000000000000000000 ) ) ;
#124 = DIRECTION ( 'NONE',  ( 0.000000000000000000, 0.000000000000000000, 1.000000000000000000 ) ) ;
#125 = CC_DESIGN_SECURITY_CLASSIFICATION ( #137, ( #323 ) ) ;
#126 = APPLICATION_PROTOCOL_DEFINITION ( 'international standard', 'config_control_design', 1994, #33 ) ;
#127 = CYLINDRICAL_SURFACE ( 'NONE', #298, 8.500000000000000000 ) ;
#128 = DIRECTION ( 'NONE',  ( -1.000000000000000000, -0.000000000000000000, -0.000000000000000000 ) ) ;
#129 = ORIENTED_EDGE ( 'NONE', *, *, #355, .T. ) ;
#130 = ORGANIZATION ( 'UNSPECIFIED', 'UNSPECIFIED', '' ) ;
#131 = CONICAL_SURFACE ( 'NONE', #3, 9.999999999999998224, 1.396263401595465137 ) ;
#132 = VECTOR ( 'NONE', #329, 1000.000000000000000 ) ;
#133 = ORIENTED_EDGE ( 'NONE', *, *, #136, .T. ) ;
#134 = ORIENTED_EDGE ( 'NONE', *, *, #261, .T. ) ;
#135 = ORIENTED_EDGE ( 'NONE', *, *, #322, .F. ) ;
#136 = EDGE_CURVE ( 'NONE', #232, #237, #82, .T. ) ;
#137 = SECURITY_CLASSIFICATION ( '', '', #201 ) ;
#138 = ORIENTED_EDGE ( 'NONE', *, *, #141, .F. ) ;
#139 = APPROVAL_PERSON_ORGANIZATION ( #334, #305, #300 ) ;
#140 = ORIENTED_EDGE ( 'NONE', *, *, #197, .T. ) ;
#141 = EDGE_CURVE ( 'NONE', #30, #367, #227, .T. ) ;
#142 = ORIENTED_EDGE ( 'NONE', *, *, #202, .F. ) ;
#143 = CYLINDRICAL_SURFACE ( 'NONE', #362, 9.999999999999998224 ) ;
#144 = DIRECTION ( 'NONE',  ( -1.000000000000000000, -0.000000000000000000, -0.000000000000000000 ) ) ;
#145 = CARTESIAN_POINT ( 'NONE',  ( -36.70332301863295754, 0.000000000000000000, 0.000000000000000000 ) ) ;
#146 = ORIENTED_EDGE ( 'NONE', *, *, #202, .T. ) ;
#147 = MANIFOLD_SOLID_BREP ( 'Rotation1', #233 ) ;
#148 = EDGE_CURVE ( 'NONE', #399, #415, #75, .T. ) ;
#149 = VERTEX_POINT ( 'NONE', #318 ) ;
#150 = DIRECTION ( 'NONE',  ( -1.000000000000000000, -0.000000000000000000, -0.000000000000000000 ) ) ;
#151 = CARTESIAN_POINT ( 'NONE',  ( 6.499999999999999112, 0.000000000000000000, 0.000000000000000000 ) ) ;
#152 = APPROVAL_DATE_TIME ( #193, #91 ) ;
#153 = DIRECTION ( 'NONE',  ( 0.000000000000000000, 0.000000000000000000, 1.000000000000000000 ) ) ;
#154 = ADVANCED_FACE ( 'NONE', ( #225 ), #127, .T. ) ;
#155 = DIRECTION ( 'NONE',  ( -1.000000000000000000, -0.000000000000000000, -0.000000000000000000 ) ) ;
#156 = DIRECTION ( 'NONE',  ( -1.000000000000000000, -0.000000000000000000, -0.000000000000000000 ) ) ;
#157 = APPROVAL_PERSON_ORGANIZATION ( #418, #52, #12 ) ;
#158 = VECTOR ( 'NONE', #84, 1000.000000000000000 ) ;
#159 = AXIS2_PLACEMENT_3D ( 'NONE', #254, #13, #421 ) ;
#160 = CARTESIAN_POINT ( 'NONE',  ( -5.035509528937311075, 0.000000000000000000, 0.000000000000000000 ) ) ;
#161 = DIRECTION ( 'NONE',  ( -1.000000000000000000, -0.000000000000000000, -0.000000000000000000 ) ) ;
#162 = PERSON_AND_ORGANIZATION_ROLE ( 'classification_officer' ) ;
#163 = DIRECTION ( 'NONE',  ( -1.000000000000000000, -0.000000000000000000, -0.000000000000000000 ) ) ;
#164 = EDGE_CURVE ( 'NONE', #149, #307, #256, .T. ) ;
#165 = VERTEX_POINT ( 'NONE', #397 ) ;
#166 = CIRCLE ( 'NONE', #95, 8.500000000000000000 ) ;
#167 = CIRCLE ( 'NONE', #282, 5.000000000000000888 ) ;
#168 = VERTEX_POINT ( 'NONE', #392 ) ;
#169 = DATE_AND_TIME ( #302, #393 ) ;
#170 = ORIENTED_EDGE ( 'NONE', *, *, #39, .T. ) ;
#171 = ADVANCED_FACE ( 'NONE', ( #61 ), #293, .T. ) ;
#172 = COORDINATED_UNIVERSAL_TIME_OFFSET ( 1, 0, .AHEAD. ) ;
#173 = VERTEX_POINT ( 'NONE', #50 ) ;
#174 = AXIS2_PLACEMENT_3D ( 'NONE', #180, #2, #21 ) ;
#175 = AXIS2_PLACEMENT_3D ( 'NONE', #395, #163, #93 ) ;
#176 = ORIENTED_EDGE ( 'NONE', *, *, #136, .F. ) ;
#177 = PLANE ( 'NONE',  #317 ) ;
#178 = EDGE_LOOP ( 'NONE', ( #369, #64 ) ) ;
#179 = DIRECTION ( 'NONE',  ( 0.000000000000000000, 0.000000000000000000, 1.000000000000000000 ) ) ;
#180 = CARTESIAN_POINT ( 'NONE',  ( 1.499999999999994449, 0.000000000000000000, 0.000000000000000000 ) ) ;
#181 = DIRECTION ( 'NONE',  ( 0.000000000000000000, 0.000000000000000000, 1.000000000000000000 ) ) ;
#182 = CARTESIAN_POINT ( 'NONE',  ( -36.70332301863295754, 0.000000000000000000, 0.000000000000000000 ) ) ;
#183 = EDGE_CURVE ( 'NONE', #307, #367, #68, .T. ) ;
#184 = CARTESIAN_POINT ( 'NONE',  ( -36.70332301863295754, 0.000000000000000000, 0.000000000000000000 ) ) ;
#185 = CARTESIAN_POINT ( 'NONE',  ( 1.499999999999996891, 8.500000000000000000, 0.000000000000000000 ) ) ;
#186 = DATE_TIME_ROLE ( 'creation_date' ) ;
#187 = DIRECTION ( 'NONE',  ( 0.000000000000000000, 0.000000000000000000, 1.000000000000000000 ) ) ;
#188 = AXIS2_PLACEMENT_3D ( 'NONE', #184, #347, #179 ) ;
#189 = EDGE_CURVE ( 'NONE', #415, #232, #94, .T. ) ;
#190 = MECHANICAL_CONTEXT ( 'NONE', #376, 'mechanical' ) ;
#191 = DIRECTION ( 'NONE',  ( 0.000000000000000000, 0.000000000000000000, 1.000000000000000000 ) ) ;
#192 = DIRECTION ( 'NONE',  ( -1.000000000000000000, -0.000000000000000000, -0.000000000000000000 ) ) ;
#193 = DATE_AND_TIME ( #353, #253 ) ;
#194 = DIRECTION ( 'NONE',  ( -1.000000000000000000, -0.000000000000000000, -0.000000000000000000 ) ) ;
#195 = COORDINATED_UNIVERSAL_TIME_OFFSET ( 1, 0, .AHEAD. ) ;
#196 = CARTESIAN_POINT ( 'NONE',  ( -36.70332301863295754, 0.000000000000000000, 0.000000000000000000 ) ) ;
#197 = EDGE_CURVE ( 'NONE', #234, #260, #38, .T. ) ;
#198 = EDGE_LOOP ( 'NONE', ( #269, #236 ) ) ;
#199 = EDGE_LOOP ( 'NONE', ( #313, #26 ) ) ;
#200 = AXIS2_PLACEMENT_3D ( 'NONE', #17, #150, #116 ) ;
#201 = SECURITY_CLASSIFICATION_LEVEL ( 'unclassified' ) ;
#202 = EDGE_CURVE ( 'NONE', #415, #399, #10, .T. ) ;
#203 = ORIENTED_EDGE ( 'NONE', *, *, #244, .T. ) ;
#204 = VERTEX_POINT ( 'NONE', #350 ) ;
#205 = ORIENTED_EDGE ( 'NONE', *, *, #363, .T. ) ;
#206 = AXIS2_PLACEMENT_3D ( 'NONE', #251, #155, #389 ) ;
#207 = VERTEX_POINT ( 'NONE', #18 ) ;
#208 = ADVANCED_FACE ( 'NONE', ( #359 ), #96, .F. ) ;
#209 = FACE_OUTER_BOUND ( 'NONE', #199, .T. ) ;
#210 = DIRECTION ( 'NONE',  ( 0.000000000000000000, 0.000000000000000000, 1.000000000000000000 ) ) ;
#211 = PLANE ( 'NONE',  #9 ) ;
#212 = LOCAL_TIME ( 22, 22, 44.00000000000000000, #87 ) ;
#213 = EDGE_CURVE ( 'NONE', #43, #168, #326, .T. ) ;
#214 = DIRECTION ( 'NONE',  ( -1.000000000000000000, -0.000000000000000000, -0.000000000000000000 ) ) ;
#215 = DIRECTION ( 'NONE',  ( 0.000000000000000000, 0.000000000000000000, 1.000000000000000000 ) ) ;
#216 = CIRCLE ( 'NONE', #22, 9.999999999999998224 ) ;
#217 = CARTESIAN_POINT ( 'NONE',  ( -36.70332301863295754, 0.000000000000000000, 0.000000000000000000 ) ) ;
#218 = CARTESIAN_POINT ( 'NONE',  ( -36.70332301863295754, 0.000000000000000000, 5.000000000000001776 ) ) ;
#219 = CARTESIAN_POINT ( 'NONE',  ( -5.300000000000006040, 0.000000000000000000, 0.000000000000000000 ) ) ;
#220 = ADVANCED_FACE ( 'NONE', ( #287, #288 ), #24, .T. ) ;
#221 = CALENDAR_DATE ( 2024, 2, 9 ) ;
#222 = AXIS2_PLACEMENT_3D ( 'NONE', #375, #114, #181 ) ;
#223 = DIRECTION ( 'NONE',  ( -1.000000000000000000, -0.000000000000000000, -0.000000000000000000 ) ) ;
#224 = PERSON_AND_ORGANIZATION ( #250, #130 ) ;
#225 = FACE_OUTER_BOUND ( 'NONE', #35, .T. ) ;
#226 = CARTESIAN_POINT ( 'NONE',  ( 6.499999999999999112, 0.000000000000000000, 7.000000000000000000 ) ) ;
#227 = LINE ( 'NONE', #15, #107 ) ;
#228 = PERSON_AND_ORGANIZATION ( #250, #130 ) ;
#229 = CARTESIAN_POINT ( 'NONE',  ( -6.500000000000002665, 0.000000000000000000, 0.000000000000000000 ) ) ;
#230 = EDGE_LOOP ( 'NONE', ( #104, #400, #32, #67 ) ) ;
#231 = PRODUCT_RELATED_PRODUCT_CATEGORY ( 'detail', '', ( #40 ) ) ;
#232 = VERTEX_POINT ( 'NONE', #284 ) ;
#233 = CLOSED_SHELL ( 'NONE', ( #28, #154, #59, #122, #267, #220, #208, #295, #171, #23, #274, #77, #44 ) ) ;
#234 = VERTEX_POINT ( 'NONE', #419 ) ;
#235 = APPROVAL_DATE_TIME ( #66, #52 ) ;
#236 = ORIENTED_EDGE ( 'NONE', *, *, #257, .F. ) ;
#237 = VERTEX_POINT ( 'NONE', #119 ) ;
#238 = EDGE_CURVE ( 'NONE', #149, #30, #216, .T. ) ;
#239 = CONICAL_SURFACE ( 'NONE', #402, 9.999999999999998224, 1.396263401595465137 ) ;
#240 = DIRECTION ( 'NONE',  ( -0.000000000000000000, 0.000000000000000000, 1.000000000000000000 ) ) ;
#241 = CARTESIAN_POINT ( 'NONE',  ( -6.500000000000002665, 0.000000000000000000, 0.000000000000000000 ) ) ;
#242 = DIRECTION ( 'NONE',  ( 0.000000000000000000, 0.000000000000000000, 1.000000000000000000 ) ) ;
#243 = ORIENTED_EDGE ( 'NONE', *, *, #417, .T. ) ;
#244 = EDGE_CURVE ( 'NONE', #234, #173, #121, .T. ) ;
#245 = CARTESIAN_POINT ( 'NONE',  ( 6.499999999999999112, 0.000000000000000000, 0.000000000000000000 ) ) ;
#246 = DIRECTION ( 'NONE',  ( -0.1736481776669288879, 1.206041662501898114E-16, -0.9848077530122083534 ) ) ;
#247 = CARTESIAN_POINT ( 'NONE',  ( -5.300000000000006040, 0.000000000000000000, 0.000000000000000000 ) ) ;
#248 = AXIS2_PLACEMENT_3D ( 'NONE', #217, #214, #47 ) ;
#249 = DIRECTION ( 'NONE',  ( 1.000000000000000000, 0.000000000000000000, 0.000000000000000000 ) ) ;
#250 = PERSON ( 'UNSPECIFIED', 'UNSPECIFIED', 'UNSPECIFIED', ('UNSPECIFIED'), ('UNSPECIFIED'), ('UNSPECIFIED') ) ;
#251 = CARTESIAN_POINT ( 'NONE',  ( -5.035509528937311075, 0.000000000000000000, 0.000000000000000000 ) ) ;
#252 = DIRECTION ( 'NONE',  ( 0.000000000000000000, 0.000000000000000000, 1.000000000000000000 ) ) ;
#253 = LOCAL_TIME ( 22, 22, 44.00000000000000000, #258 ) ;
#254 = CARTESIAN_POINT ( 'NONE',  ( 6.499999999999997335, 7.000000000000000000, 0.000000000000000000 ) ) ;
#255 =( LENGTH_UNIT ( ) NAMED_UNIT ( * ) SI_UNIT ( .MILLI., .METRE. ) );
#256 = LINE ( 'NONE', #291, #4 ) ;
#257 = EDGE_CURVE ( 'NONE', #173, #204, #167, .T. ) ;
#258 = COORDINATED_UNIVERSAL_TIME_OFFSET ( 1, 0, .AHEAD. ) ;
#259 = DIRECTION ( 'NONE',  ( 0.000000000000000000, 0.000000000000000000, 1.000000000000000000 ) ) ;
#260 = VERTEX_POINT ( 'NONE', #42 ) ;
#261 = EDGE_CURVE ( 'NONE', #260, #234, #11, .T. ) ;
#262 = PERSON_AND_ORGANIZATION ( #250, #130 ) ;
#263 = ORIENTED_EDGE ( 'NONE', *, *, #387, .T. ) ;
#264 = ORIENTED_EDGE ( 'NONE', *, *, #189, .T. ) ;
#265 = AXIS2_PLACEMENT_3D ( 'NONE', #60, #123, #320 ) ;
#266 = ORIENTED_EDGE ( 'NONE', *, *, #310, .T. ) ;
#267 = ADVANCED_FACE ( 'NONE', ( #80 ), #381, .F. ) ;
#268 = DIRECTION ( 'NONE',  ( 0.000000000000000000, 0.000000000000000000, 1.000000000000000000 ) ) ;
#269 = ORIENTED_EDGE ( 'NONE', *, *, #108, .F. ) ;
#270 = DIRECTION ( 'NONE',  ( -1.000000000000000000, 0.000000000000000000, -0.000000000000000000 ) ) ;
#271 = FACE_OUTER_BOUND ( 'NONE', #378, .T. ) ;
#272 = FACE_OUTER_BOUND ( 'NONE', #275, .T. ) ;
#273 = DIRECTION ( 'NONE',  ( -1.000000000000000000, -0.000000000000000000, -0.000000000000000000 ) ) ;
#274 = ADVANCED_FACE ( 'NONE', ( #272 ), #345, .T. ) ;
#275 = EDGE_LOOP ( 'NONE', ( #37, #266, #336, #16 ) ) ;
#276 = ORIENTED_EDGE ( 'NONE', *, *, #238, .T. ) ;
#277 = AXIS2_PLACEMENT_3D ( 'NONE', #57, #356, #422 ) ;
#278 = CIRCLE ( 'NONE', #105, 8.500000000000000000 ) ;
#279 = DIRECTION ( 'NONE',  ( 0.000000000000000000, 0.000000000000000000, 1.000000000000000000 ) ) ;
#280 = FACE_OUTER_BOUND ( 'NONE', #429, .T. ) ;
#281 = AXIS2_PLACEMENT_3D ( 'NONE', #151, #316, #252 ) ;
#282 = AXIS2_PLACEMENT_3D ( 'NONE', #41, #306, #268 ) ;
#283 = PRODUCT_DEFINITION ( 'UNKNOWN', '', #323, #404 ) ;
#284 = CARTESIAN_POINT ( 'NONE',  ( 1.499999999999994449, 0.000000000000000000, 6.999999999999999112 ) ) ;
#285 = EDGE_LOOP ( 'NONE', ( #133, #337 ) ) ;
#286 = DIRECTION ( 'NONE',  ( -1.000000000000000000, -0.000000000000000000, -0.000000000000000000 ) ) ;
#287 = FACE_BOUND ( 'NONE', #301, .T. ) ;
#288 = FACE_OUTER_BOUND ( 'NONE', #69, .T. ) ;
#289 = CC_DESIGN_PERSON_AND_ORGANIZATION_ASSIGNMENT ( #63, #31, ( #323 ) ) ;
#290 = CARTESIAN_POINT ( 'NONE',  ( 6.499999999999999112, 8.572527594031474176E-16, -7.000000000000000888 ) ) ;
#291 = CARTESIAN_POINT ( 'NONE',  ( -36.70332301863295754, 1.224646799147353059E-15, -9.999999999999998224 ) ) ;
#292 = APPROVAL_DATE_TIME ( #169, #305 ) ;
#293 = CYLINDRICAL_SURFACE ( 'NONE', #175, 9.999999999999998224 ) ;
#294 = ORIENTED_EDGE ( 'NONE', *, *, #363, .F. ) ;
#295 = ADVANCED_FACE ( 'NONE', ( #209, #370 ), #177, .T. ) ;
#296 = CIRCLE ( 'NONE', #73, 5.000000000000000888 ) ;
#297 = ORIENTED_EDGE ( 'NONE', *, *, #257, .T. ) ;
#298 = AXIS2_PLACEMENT_3D ( 'NONE', #416, #128, #259 ) ;
#299 = EDGE_LOOP ( 'NONE', ( #129, #99, #135, #138 ) ) ;
#300 = APPROVAL_ROLE ( '' ) ;
#301 = EDGE_LOOP ( 'NONE', ( #134, #140 ) ) ;
#302 = CALENDAR_DATE ( 2024, 2, 9 ) ;
#303 = ORIENTED_EDGE ( 'NONE', *, *, #189, .F. ) ;
#304 = CIRCLE ( 'NONE', #51, 6.999999999999999112 ) ;
#305 = APPROVAL ( #332, 'UNSPECIFIED' ) ;
#306 = DIRECTION ( 'NONE',  ( -1.000000000000000000, -0.000000000000000000, -0.000000000000000000 ) ) ;
#307 = VERTEX_POINT ( 'NONE', #341 ) ;
#308 = CARTESIAN_POINT ( 'NONE',  ( -6.500000000000002665, 5.000000000000000888, 0.000000000000000000 ) ) ;
#309 = DIRECTION ( 'NONE',  ( -1.000000000000000000, -0.000000000000000000, -0.000000000000000000 ) ) ;
#310 = EDGE_CURVE ( 'NONE', #43, #165, #278, .T. ) ;
#311 = DIRECTION ( 'NONE',  ( 0.000000000000000000, 0.000000000000000000, 1.000000000000000000 ) ) ;
#312 = DIRECTION ( 'NONE',  ( -1.000000000000000000, -0.000000000000000000, -0.000000000000000000 ) ) ;
#313 = ORIENTED_EDGE ( 'NONE', *, *, #322, .T. ) ;
#314 = LINE ( 'NONE', #218, #100 ) ;
#315 = APPROVAL_STATUS ( 'not_yet_approved' ) ;
#316 = DIRECTION ( 'NONE',  ( -1.000000000000000000, -0.000000000000000000, -0.000000000000000000 ) ) ;
#317 = AXIS2_PLACEMENT_3D ( 'NONE', #308, #270, #240 ) ;
#318 = CARTESIAN_POINT ( 'NONE',  ( -5.300000000000006040, 1.224646799147353059E-15, -9.999999999999998224 ) ) ;
#319 = ORIENTED_EDGE ( 'NONE', *, *, #39, .F. ) ;
#320 = DIRECTION ( 'NONE',  ( 1.000000000000000000, 0.000000000000000000, 0.000000000000000000 ) ) ;
#321 = CARTESIAN_POINT ( 'NONE',  ( 6.499999999999999112, 0.000000000000000000, 0.000000000000000000 ) ) ;
#322 = EDGE_CURVE ( 'NONE', #367, #307, #351, .T. ) ;
#323 = PRODUCT_DEFINITION_FORMATION_WITH_SPECIFIED_SOURCE ( 'ANY', '', #40, .NOT_KNOWN. ) ;
#324 = VECTOR ( 'NONE', #246, 1000.000000000000000 ) ;
#325 = DIRECTION ( 'NONE',  ( 0.000000000000000000, 0.000000000000000000, 1.000000000000000000 ) ) ;
#326 = LINE ( 'NONE', #88, #132 ) ;
#327 = VECTOR ( 'NONE', #385, 1000.000000000000000 ) ;
#328 = AXIS2_PLACEMENT_3D ( 'NONE', #245, #144, #377 ) ;
#329 = DIRECTION ( 'NONE',  ( -1.000000000000000000, -0.000000000000000000, -0.000000000000000000 ) ) ;
#330 = SHAPE_DEFINITION_REPRESENTATION ( #425, #338 ) ;
#331 = CC_DESIGN_PERSON_AND_ORGANIZATION_ASSIGNMENT ( #262, #25, ( #323 ) ) ;
#332 = APPROVAL_STATUS ( 'not_yet_approved' ) ;
#333 = ORIENTED_EDGE ( 'NONE', *, *, #86, .F. ) ;
#334 = PERSON_AND_ORGANIZATION ( #250, #130 ) ;
#335 = ORIENTED_EDGE ( 'NONE', *, *, #355, .F. ) ;
#336 = ORIENTED_EDGE ( 'NONE', *, *, #115, .T. ) ;
#337 = ORIENTED_EDGE ( 'NONE', *, *, #86, .T. ) ;
#338 = ADVANCED_BREP_SHAPE_REPRESENTATION ( '3D-LR-131-SE_14-10_17106510', ( #147, #265 ), #401 ) ;
#339 = ORIENTED_EDGE ( 'NONE', *, *, #340, .T. ) ;
#340 = EDGE_CURVE ( 'NONE', #165, #43, #388, .T. ) ;
#341 = CARTESIAN_POINT ( 'NONE',  ( -6.500000000000002665, 1.224646799147353059E-15, -9.999999999999998224 ) ) ;
#342 = DIRECTION ( 'NONE',  ( 0.000000000000000000, 0.000000000000000000, 1.000000000000000000 ) ) ;
#343 = LINE ( 'NONE', #383, #113 ) ;
#344 = LOCAL_TIME ( 22, 22, 44.00000000000000000, #195 ) ;
#345 = CYLINDRICAL_SURFACE ( 'NONE', #188, 8.500000000000000000 ) ;
#346 = DIRECTION ( 'NONE',  ( -1.000000000000000000, -0.000000000000000000, -0.000000000000000000 ) ) ;
#347 = DIRECTION ( 'NONE',  ( -1.000000000000000000, -0.000000000000000000, -0.000000000000000000 ) ) ;
#348 = DIRECTION ( 'NONE',  ( -1.000000000000000000, -0.000000000000000000, -0.000000000000000000 ) ) ;
#349 = APPLICATION_PROTOCOL_DEFINITION ( 'international standard', 'config_control_design', 1994, #376 ) ;
#350 = CARTESIAN_POINT ( 'NONE',  ( -6.500000000000002665, 0.000000000000000000, 5.000000000000000888 ) ) ;
#351 = CIRCLE ( 'NONE', #36, 9.999999999999998224 ) ;
#352 = AXIS2_PLACEMENT_3D ( 'NONE', #145, #410, #407 ) ;
#353 = CALENDAR_DATE ( 2024, 2, 9 ) ;
#354 = CARTESIAN_POINT ( 'NONE',  ( -36.70332301863295754, 0.000000000000000000, 6.999999999999999112 ) ) ;
#355 = EDGE_CURVE ( 'NONE', #30, #149, #79, .T. ) ;
#356 = DIRECTION ( 'NONE',  ( -1.000000000000000000, -0.000000000000000000, -0.000000000000000000 ) ) ;
#357 = DIRECTION ( 'NONE',  ( -1.000000000000000000, -0.000000000000000000, -0.000000000000000000 ) ) ;
#358 = APPROVAL_STATUS ( 'not_yet_approved' ) ;
#359 = FACE_OUTER_BOUND ( 'NONE', #230, .T. ) ;
#360 = APPROVAL_ROLE ( '' ) ;
#361 = DIRECTION ( 'NONE',  ( 0.000000000000000000, 0.000000000000000000, 1.000000000000000000 ) ) ;
#362 = AXIS2_PLACEMENT_3D ( 'NONE', #182, #348, #342 ) ;
#363 = EDGE_CURVE ( 'NONE', #207, #30, #14, .T. ) ;
#364 = ORIENTED_EDGE ( 'NONE', *, *, #213, .T. ) ;
#365 = ORIENTED_EDGE ( 'NONE', *, *, #62, .F. ) ;
#366 = CC_DESIGN_PERSON_AND_ORGANIZATION_ASSIGNMENT ( #118, #391, ( #40 ) ) ;
#367 = VERTEX_POINT ( 'NONE', #20 ) ;
#368 = DATE_TIME_ROLE ( 'classification_date' ) ;
#369 = ORIENTED_EDGE ( 'NONE', *, *, #340, .F. ) ;
#370 = FACE_BOUND ( 'NONE', #198, .T. ) ;
#371 = EDGE_LOOP ( 'NONE', ( #146, #406, #176, #303 ) ) ;
#372 = APPROVAL_PERSON_ORGANIZATION ( #228, #91, #360 ) ;
#373 = CARTESIAN_POINT ( 'NONE',  ( 1.499999999999994449, 0.000000000000000000, 0.000000000000000000 ) ) ;
#374 = CARTESIAN_POINT ( 'NONE',  ( -6.500000000000002665, 0.000000000000000000, 0.000000000000000000 ) ) ;
#375 = CARTESIAN_POINT ( 'NONE',  ( -36.70332301863295754, 0.000000000000000000, 0.000000000000000000 ) ) ;
#376 = APPLICATION_CONTEXT ( 'configuration controlled 3d designs of mechanical parts and assemblies' ) ;
#377 = DIRECTION ( 'NONE',  ( 0.000000000000000000, 0.000000000000000000, 1.000000000000000000 ) ) ;
#378 = EDGE_LOOP ( 'NONE', ( #428, #48, #264, #333 ) ) ;
#379 = LOCAL_TIME ( 22, 22, 44.00000000000000000, #172 ) ;
#380 = CC_DESIGN_PERSON_AND_ORGANIZATION_ASSIGNMENT ( #224, #394, ( #283 ) ) ;
#381 = CYLINDRICAL_SURFACE ( 'NONE', #248, 5.000000000000001776 ) ;
#382 = DIRECTION ( 'NONE',  ( -1.000000000000000000, -0.000000000000000000, -0.000000000000000000 ) ) ;
#383 = CARTESIAN_POINT ( 'NONE',  ( -36.70332301863295754, 8.572527594031472204E-16, -6.999999999999999112 ) ) ;
#384 =( NAMED_UNIT ( * ) PLANE_ANGLE_UNIT ( ) SI_UNIT ( $, .RADIAN. ) );
#385 = DIRECTION ( 'NONE',  ( -1.000000000000000000, -0.000000000000000000, -0.000000000000000000 ) ) ;
#386 = EDGE_LOOP ( 'NONE', ( #98, #203, #297, #365 ) ) ;
#387 = EDGE_CURVE ( 'NONE', #207, #168, #166, .T. ) ;
#388 = CIRCLE ( 'NONE', #200, 8.500000000000000000 ) ;
#389 = DIRECTION ( 'NONE',  ( 0.000000000000000000, 0.000000000000000000, 1.000000000000000000 ) ) ;
#390 = CARTESIAN_POINT ( 'NONE',  ( 6.499999999999999112, 0.000000000000000000, 0.000000000000000000 ) ) ;
#391 = PERSON_AND_ORGANIZATION_ROLE ( 'design_owner' ) ;
#392 = CARTESIAN_POINT ( 'NONE',  ( -5.035509528937311075, 1.132798289211301501E-15, -8.500000000000000000 ) ) ;
#393 = LOCAL_TIME ( 22, 22, 44.00000000000000000, #34 ) ;
#394 = PERSON_AND_ORGANIZATION_ROLE ( 'creator' ) ;
#395 = CARTESIAN_POINT ( 'NONE',  ( -36.70332301863295754, 0.000000000000000000, 0.000000000000000000 ) ) ;
#396 = CIRCLE ( 'NONE', #206, 8.500000000000000000 ) ;
#397 = CARTESIAN_POINT ( 'NONE',  ( 1.499999999999994449, 0.000000000000000000, 8.500000000000000000 ) ) ;
#398 = PERSON_AND_ORGANIZATION ( #250, #130 ) ;
#399 = VERTEX_POINT ( 'NONE', #290 ) ;
#400 = ORIENTED_EDGE ( 'NONE', *, *, #261, .F. ) ;
#401 =( GEOMETRIC_REPRESENTATION_CONTEXT ( 3 ) GLOBAL_UNCERTAINTY_ASSIGNED_CONTEXT ( ( #71 ) ) GLOBAL_UNIT_ASSIGNED_CONTEXT ( ( #255, #384, #89 ) ) REPRESENTATION_CONTEXT ( 'NONE', 'WORKASPACE' ) );
#402 = AXIS2_PLACEMENT_3D ( 'NONE', #247, #309, #215 ) ;
#403 = ORIENTED_EDGE ( 'NONE', *, *, #164, .F. ) ;
#404 = DESIGN_CONTEXT ( 'detailed design', #33, 'design' ) ;
#405 = ORIENTED_EDGE ( 'NONE', *, *, #387, .F. ) ;
#406 = ORIENTED_EDGE ( 'NONE', *, *, #102, .T. ) ;
#407 = DIRECTION ( 'NONE',  ( 0.000000000000000000, 0.000000000000000000, 1.000000000000000000 ) ) ;
#408 = CC_DESIGN_PERSON_AND_ORGANIZATION_ASSIGNMENT ( #398, #162, ( #137 ) ) ;
#409 = CARTESIAN_POINT ( 'NONE',  ( 1.499999999999994449, 0.000000000000000000, 0.000000000000000000 ) ) ;
#410 = DIRECTION ( 'NONE',  ( -1.000000000000000000, -0.000000000000000000, -0.000000000000000000 ) ) ;
#411 = CARTESIAN_POINT ( 'NONE',  ( -5.300000000000006040, 1.224646799147353059E-15, -9.999999999999998224 ) ) ;
#412 = CC_DESIGN_DATE_AND_TIME_ASSIGNMENT ( #97, #368, ( #137 ) ) ;
#413 = CYLINDRICAL_SURFACE ( 'NONE', #222, 6.999999999999999112 ) ;
#414 = AXIS2_PLACEMENT_3D ( 'NONE', #229, #192, #187 ) ;
#415 = VERTEX_POINT ( 'NONE', #226 ) ;
#416 = CARTESIAN_POINT ( 'NONE',  ( -36.70332301863295754, 0.000000000000000000, 0.000000000000000000 ) ) ;
#417 = EDGE_CURVE ( 'NONE', #168, #207, #396, .T. ) ;
#418 = PERSON_AND_ORGANIZATION ( #250, #130 ) ;
#419 = CARTESIAN_POINT ( 'NONE',  ( 6.499999999999999112, 6.123233995736769241E-16, -5.000000000000002665 ) ) ;
#420 = CARTESIAN_POINT ( 'NONE',  ( -5.300000000000006040, 0.000000000000000000, 9.999999999999998224 ) ) ;
#421 = DIRECTION ( 'NONE',  ( 0.000000000000000000, 0.000000000000000000, -1.000000000000000000 ) ) ;
#422 = DIRECTION ( 'NONE',  ( 0.000000000000000000, 0.000000000000000000, 1.000000000000000000 ) ) ;
#423 = ORIENTED_EDGE ( 'NONE', *, *, #141, .T. ) ;
#424 = EDGE_LOOP ( 'NONE', ( #263, #170, #335, #294 ) ) ;
#425 = PRODUCT_DEFINITION_SHAPE ( 'NONE', 'NONE',  #283 ) ;
#426 = CALENDAR_DATE ( 2024, 2, 9 ) ;
#427 = ORIENTED_EDGE ( 'NONE', *, *, #238, .F. ) ;
#428 = ORIENTED_EDGE ( 'NONE', *, *, #102, .F. ) ;
#429 = EDGE_LOOP ( 'NONE', ( #319, #243, #205, #427 ) ) ;
ENDSEC;
END-ISO-10303-21;
