ISO-10303-21;
HEADER;
/* Generated by software containing ST-Developer
 * from STEP Tools, Inc. (www.steptools.com) 
 */

FILE_DESCRIPTION(
/* description */ (''),
/* implementation_level */ '2;1');

FILE_NAME(
/* name */ 
'R:\\Disegni3D_Area_Manager\\Steelpres.step\\375_STEELPRES\\375200054_
Steelpres.stp',
/* time_stamp */ '2022-10-24T16:43:31+02:00',
/* author */ ('Vault'),
/* organization */ ('Raccorderie metalliche s.p.a. '),
/* preprocessor_version */ 'ST-DEVELOPER v18.1',
/* originating_system */ 'Autodesk Inventor 2020',
/* authorisation */ 'Raccorderie metalliche s.p.a. ');

FILE_SCHEMA (('AUTOMOTIVE_DESIGN { 1 0 10303 214 3 1 1 }'));
ENDSEC;

DATA;
#10=MECHANICAL_DESIGN_GEOMETRIC_PRESENTATION_REPRESENTATION('',(#13),#236);
#11=SHAPE_REPRESENTATION_RELATIONSHIP('SRR','None',#243,#12);
#12=ADVANCED_BREP_SHAPE_REPRESENTATION('',(#14),#235);
#13=STYLED_ITEM('',(#252),#14);
#14=MANIFOLD_SOLID_BREP('Solido1',#120);
#15=FACE_BOUND('',#29,.T.);
#16=FACE_BOUND('',#32,.T.);
#17=FACE_BOUND('',#35,.T.);
#18=PLANE('',#145);
#19=PLANE('',#151);
#20=PLANE('',#157);
#21=FACE_OUTER_BOUND('',#27,.T.);
#22=FACE_OUTER_BOUND('',#28,.T.);
#23=FACE_OUTER_BOUND('',#30,.T.);
#24=FACE_OUTER_BOUND('',#31,.T.);
#25=FACE_OUTER_BOUND('',#33,.T.);
#26=FACE_OUTER_BOUND('',#34,.T.);
#27=EDGE_LOOP('',(#81,#82,#83,#84,#85,#86));
#28=EDGE_LOOP('',(#87,#88));
#29=EDGE_LOOP('',(#89,#90));
#30=EDGE_LOOP('',(#91,#92,#93,#94,#95,#96));
#31=EDGE_LOOP('',(#97,#98));
#32=EDGE_LOOP('',(#99,#100));
#33=EDGE_LOOP('',(#101,#102,#103,#104,#105,#106));
#34=EDGE_LOOP('',(#107,#108));
#35=EDGE_LOOP('',(#109,#110));
#36=LINE('',#206,#39);
#37=LINE('',#220,#40);
#38=LINE('',#228,#41);
#39=VECTOR('',#166,30.15);
#40=VECTOR('',#183,27.);
#41=VECTOR('',#192,25.5);
#42=CIRCLE('',#141,30.15);
#43=CIRCLE('',#142,30.15);
#44=CIRCLE('',#143,30.15);
#45=CIRCLE('',#144,30.15);
#46=CIRCLE('',#146,27.);
#47=CIRCLE('',#147,27.);
#48=CIRCLE('',#149,27.);
#49=CIRCLE('',#150,27.);
#50=CIRCLE('',#152,25.5);
#51=CIRCLE('',#153,25.5);
#52=CIRCLE('',#155,25.5);
#53=CIRCLE('',#156,25.5);
#54=VERTEX_POINT('',#201);
#55=VERTEX_POINT('',#202);
#56=VERTEX_POINT('',#205);
#57=VERTEX_POINT('',#207);
#58=VERTEX_POINT('',#211);
#59=VERTEX_POINT('',#212);
#60=VERTEX_POINT('',#216);
#61=VERTEX_POINT('',#217);
#62=VERTEX_POINT('',#222);
#63=VERTEX_POINT('',#223);
#64=VERTEX_POINT('',#227);
#65=VERTEX_POINT('',#229);
#66=EDGE_CURVE('',#54,#55,#42,.T.);
#67=EDGE_CURVE('',#55,#54,#43,.T.);
#68=EDGE_CURVE('',#55,#56,#36,.T.);
#69=EDGE_CURVE('',#56,#57,#44,.T.);
#70=EDGE_CURVE('',#57,#56,#45,.T.);
#71=EDGE_CURVE('',#58,#59,#46,.T.);
#72=EDGE_CURVE('',#59,#58,#47,.T.);
#73=EDGE_CURVE('',#60,#61,#48,.T.);
#74=EDGE_CURVE('',#61,#60,#49,.T.);
#75=EDGE_CURVE('',#61,#59,#37,.T.);
#76=EDGE_CURVE('',#62,#63,#50,.T.);
#77=EDGE_CURVE('',#63,#62,#51,.T.);
#78=EDGE_CURVE('',#63,#64,#38,.T.);
#79=EDGE_CURVE('',#65,#64,#52,.T.);
#80=EDGE_CURVE('',#64,#65,#53,.T.);
#81=ORIENTED_EDGE('',*,*,#66,.F.);
#82=ORIENTED_EDGE('',*,*,#67,.F.);
#83=ORIENTED_EDGE('',*,*,#68,.T.);
#84=ORIENTED_EDGE('',*,*,#69,.T.);
#85=ORIENTED_EDGE('',*,*,#70,.T.);
#86=ORIENTED_EDGE('',*,*,#68,.F.);
#87=ORIENTED_EDGE('',*,*,#66,.T.);
#88=ORIENTED_EDGE('',*,*,#67,.T.);
#89=ORIENTED_EDGE('',*,*,#71,.F.);
#90=ORIENTED_EDGE('',*,*,#72,.F.);
#91=ORIENTED_EDGE('',*,*,#73,.F.);
#92=ORIENTED_EDGE('',*,*,#74,.F.);
#93=ORIENTED_EDGE('',*,*,#75,.T.);
#94=ORIENTED_EDGE('',*,*,#72,.T.);
#95=ORIENTED_EDGE('',*,*,#71,.T.);
#96=ORIENTED_EDGE('',*,*,#75,.F.);
#97=ORIENTED_EDGE('',*,*,#73,.T.);
#98=ORIENTED_EDGE('',*,*,#74,.T.);
#99=ORIENTED_EDGE('',*,*,#76,.F.);
#100=ORIENTED_EDGE('',*,*,#77,.F.);
#101=ORIENTED_EDGE('',*,*,#76,.T.);
#102=ORIENTED_EDGE('',*,*,#78,.T.);
#103=ORIENTED_EDGE('',*,*,#79,.F.);
#104=ORIENTED_EDGE('',*,*,#80,.F.);
#105=ORIENTED_EDGE('',*,*,#78,.F.);
#106=ORIENTED_EDGE('',*,*,#77,.T.);
#107=ORIENTED_EDGE('',*,*,#70,.F.);
#108=ORIENTED_EDGE('',*,*,#69,.F.);
#109=ORIENTED_EDGE('',*,*,#79,.T.);
#110=ORIENTED_EDGE('',*,*,#80,.T.);
#111=CYLINDRICAL_SURFACE('',#140,30.15);
#112=CYLINDRICAL_SURFACE('',#148,27.);
#113=CYLINDRICAL_SURFACE('',#154,25.5);
#114=ADVANCED_FACE('',(#21),#111,.T.);
#115=ADVANCED_FACE('',(#22,#15),#18,.T.);
#116=ADVANCED_FACE('',(#23),#112,.T.);
#117=ADVANCED_FACE('',(#24,#16),#19,.T.);
#118=ADVANCED_FACE('',(#25),#113,.F.);
#119=ADVANCED_FACE('',(#26,#17),#20,.T.);
#120=CLOSED_SHELL('',(#114,#115,#116,#117,#118,#119));
#121=DERIVED_UNIT_ELEMENT(#123,1.);
#122=DERIVED_UNIT_ELEMENT(#238,3.);
#123=(
MASS_UNIT()
NAMED_UNIT(*)
SI_UNIT($,.GRAM.)
);
#124=DERIVED_UNIT((#121,#122));
#125=MEASURE_REPRESENTATION_ITEM('density measure',
POSITIVE_RATIO_MEASURE(0.001),#124);
#126=PROPERTY_DEFINITION_REPRESENTATION(#131,#128);
#127=PROPERTY_DEFINITION_REPRESENTATION(#132,#129);
#128=REPRESENTATION('material name',(#130),#235);
#129=REPRESENTATION('density',(#125),#235);
#130=DESCRIPTIVE_REPRESENTATION_ITEM('_','_');
#131=PROPERTY_DEFINITION('material property','material name',#245);
#132=PROPERTY_DEFINITION('material property','density of part',#245);
#133=DATE_TIME_ROLE('creation_date');
#134=APPLIED_DATE_AND_TIME_ASSIGNMENT(#135,#133,(#245));
#135=DATE_AND_TIME(#136,#137);
#136=CALENDAR_DATE(2022,24,10);
#137=LOCAL_TIME(14,40,21.,#138);
#138=COORDINATED_UNIVERSAL_TIME_OFFSET(0,0,.BEHIND.);
#139=AXIS2_PLACEMENT_3D('placement',#199,#158,#159);
#140=AXIS2_PLACEMENT_3D('',#200,#160,#161);
#141=AXIS2_PLACEMENT_3D('',#203,#162,#163);
#142=AXIS2_PLACEMENT_3D('',#204,#164,#165);
#143=AXIS2_PLACEMENT_3D('',#208,#167,#168);
#144=AXIS2_PLACEMENT_3D('',#209,#169,#170);
#145=AXIS2_PLACEMENT_3D('',#210,#171,#172);
#146=AXIS2_PLACEMENT_3D('',#213,#173,#174);
#147=AXIS2_PLACEMENT_3D('',#214,#175,#176);
#148=AXIS2_PLACEMENT_3D('',#215,#177,#178);
#149=AXIS2_PLACEMENT_3D('',#218,#179,#180);
#150=AXIS2_PLACEMENT_3D('',#219,#181,#182);
#151=AXIS2_PLACEMENT_3D('',#221,#184,#185);
#152=AXIS2_PLACEMENT_3D('',#224,#186,#187);
#153=AXIS2_PLACEMENT_3D('',#225,#188,#189);
#154=AXIS2_PLACEMENT_3D('',#226,#190,#191);
#155=AXIS2_PLACEMENT_3D('',#230,#193,#194);
#156=AXIS2_PLACEMENT_3D('',#231,#195,#196);
#157=AXIS2_PLACEMENT_3D('',#232,#197,#198);
#158=DIRECTION('axis',(0.,0.,1.));
#159=DIRECTION('refdir',(1.,0.,0.));
#160=DIRECTION('center_axis',(1.,5.55111512312578E-17,0.));
#161=DIRECTION('ref_axis',(-5.55111512312578E-17,1.,0.));
#162=DIRECTION('center_axis',(1.,5.55111512312578E-17,0.));
#163=DIRECTION('ref_axis',(0.,0.,-1.));
#164=DIRECTION('center_axis',(1.,5.55111512312578E-17,0.));
#165=DIRECTION('ref_axis',(0.,0.,-1.));
#166=DIRECTION('',(-1.,-5.55111512312578E-17,0.));
#167=DIRECTION('center_axis',(1.,5.55111512312578E-17,0.));
#168=DIRECTION('ref_axis',(0.,0.,-1.));
#169=DIRECTION('center_axis',(1.,5.55111512312578E-17,0.));
#170=DIRECTION('ref_axis',(0.,0.,-1.));
#171=DIRECTION('center_axis',(1.,5.55111512312578E-17,0.));
#172=DIRECTION('ref_axis',(0.,0.,-1.));
#173=DIRECTION('center_axis',(1.,5.55111512312578E-17,0.));
#174=DIRECTION('ref_axis',(0.,0.,-1.));
#175=DIRECTION('center_axis',(1.,5.55111512312578E-17,0.));
#176=DIRECTION('ref_axis',(0.,0.,-1.));
#177=DIRECTION('center_axis',(1.,5.55111512312578E-17,0.));
#178=DIRECTION('ref_axis',(-5.55111512312578E-17,1.,0.));
#179=DIRECTION('center_axis',(1.,5.55111512312578E-17,0.));
#180=DIRECTION('ref_axis',(0.,0.,-1.));
#181=DIRECTION('center_axis',(1.,5.55111512312578E-17,0.));
#182=DIRECTION('ref_axis',(0.,0.,-1.));
#183=DIRECTION('',(-1.,-5.55111512312578E-17,0.));
#184=DIRECTION('center_axis',(1.,5.55111512312578E-17,0.));
#185=DIRECTION('ref_axis',(0.,0.,-1.));
#186=DIRECTION('center_axis',(1.,5.55111512312578E-17,0.));
#187=DIRECTION('ref_axis',(0.,0.,-1.));
#188=DIRECTION('center_axis',(1.,5.55111512312578E-17,0.));
#189=DIRECTION('ref_axis',(0.,0.,-1.));
#190=DIRECTION('center_axis',(1.,5.55111512312578E-17,0.));
#191=DIRECTION('ref_axis',(-5.55111512312578E-17,1.,0.));
#192=DIRECTION('',(-1.,-5.55111512312578E-17,0.));
#193=DIRECTION('center_axis',(1.,5.55111512312578E-17,0.));
#194=DIRECTION('ref_axis',(0.,0.,-1.));
#195=DIRECTION('center_axis',(1.,5.55111512312578E-17,0.));
#196=DIRECTION('ref_axis',(0.,0.,-1.));
#197=DIRECTION('center_axis',(-1.,-5.55111512312578E-17,0.));
#198=DIRECTION('ref_axis',(0.,0.,1.));
#199=CARTESIAN_POINT('',(0.,0.,0.));
#200=CARTESIAN_POINT('Origin',(-85.,-4.71844785465692E-15,0.));
#201=CARTESIAN_POINT('',(-50.,30.15,0.));
#202=CARTESIAN_POINT('',(-50.,-30.15,-3.69231009942927E-15));
#203=CARTESIAN_POINT('Origin',(-50.,-2.77555756156289E-15,0.));
#204=CARTESIAN_POINT('Origin',(-50.,-2.77555756156289E-15,0.));
#205=CARTESIAN_POINT('',(-120.,-30.15,-3.69231009942927E-15));
#206=CARTESIAN_POINT('',(-85.,-30.15,-3.69231009942927E-15));
#207=CARTESIAN_POINT('',(-120.,30.15,0.));
#208=CARTESIAN_POINT('Origin',(-120.,-6.66133814775094E-15,0.));
#209=CARTESIAN_POINT('Origin',(-120.,-6.66133814775094E-15,0.));
#210=CARTESIAN_POINT('Origin',(-50.,27.,0.));
#211=CARTESIAN_POINT('',(-50.,27.,0.));
#212=CARTESIAN_POINT('',(-50.,-27.,-3.30654635769785E-15));
#213=CARTESIAN_POINT('Origin',(-50.,-2.77555756156289E-15,0.));
#214=CARTESIAN_POINT('Origin',(-50.,-2.77555756156289E-15,0.));
#215=CARTESIAN_POINT('Origin',(-25.,-1.38777878078145E-15,0.));
#216=CARTESIAN_POINT('',(0.,27.,0.));
#217=CARTESIAN_POINT('',(0.,-27.,-3.30654635769785E-15));
#218=CARTESIAN_POINT('Origin',(0.,0.,0.));
#219=CARTESIAN_POINT('Origin',(0.,0.,0.));
#220=CARTESIAN_POINT('',(-25.,-27.,-3.30654635769785E-15));
#221=CARTESIAN_POINT('Origin',(0.,25.5,0.));
#222=CARTESIAN_POINT('',(0.,25.5,0.));
#223=CARTESIAN_POINT('',(0.,-25.5,-3.12284933782575E-15));
#224=CARTESIAN_POINT('Origin',(0.,0.,0.));
#225=CARTESIAN_POINT('Origin',(0.,0.,0.));
#226=CARTESIAN_POINT('Origin',(-60.,-3.33066907387547E-15,0.));
#227=CARTESIAN_POINT('',(-120.,-25.5,-3.12284933782575E-15));
#228=CARTESIAN_POINT('',(-60.,-25.5,-3.12284933782575E-15));
#229=CARTESIAN_POINT('',(-120.,25.5,0.));
#230=CARTESIAN_POINT('Origin',(-120.,-6.66133814775094E-15,0.));
#231=CARTESIAN_POINT('Origin',(-120.,-6.66133814775094E-15,0.));
#232=CARTESIAN_POINT('Origin',(-120.,30.15,0.));
#233=UNCERTAINTY_MEASURE_WITH_UNIT(LENGTH_MEASURE(0.01),#237,
'DISTANCE_ACCURACY_VALUE',
'Maximum model space distance between geometric entities at asserted c
onnectivities');
#234=UNCERTAINTY_MEASURE_WITH_UNIT(LENGTH_MEASURE(0.01),#237,
'DISTANCE_ACCURACY_VALUE',
'Maximum model space distance between geometric entities at asserted c
onnectivities');
#235=(
GEOMETRIC_REPRESENTATION_CONTEXT(3)
GLOBAL_UNCERTAINTY_ASSIGNED_CONTEXT((#233))
GLOBAL_UNIT_ASSIGNED_CONTEXT((#237,#239,#240))
REPRESENTATION_CONTEXT('','3D')
);
#236=(
GEOMETRIC_REPRESENTATION_CONTEXT(3)
GLOBAL_UNCERTAINTY_ASSIGNED_CONTEXT((#234))
GLOBAL_UNIT_ASSIGNED_CONTEXT((#237,#239,#240))
REPRESENTATION_CONTEXT('','3D')
);
#237=(
LENGTH_UNIT()
NAMED_UNIT(*)
SI_UNIT(.MILLI.,.METRE.)
);
#238=(
LENGTH_UNIT()
NAMED_UNIT(*)
SI_UNIT(.CENTI.,.METRE.)
);
#239=(
NAMED_UNIT(*)
PLANE_ANGLE_UNIT()
SI_UNIT($,.RADIAN.)
);
#240=(
NAMED_UNIT(*)
SI_UNIT($,.STERADIAN.)
SOLID_ANGLE_UNIT()
);
#241=SHAPE_DEFINITION_REPRESENTATION(#242,#243);
#242=PRODUCT_DEFINITION_SHAPE('',$,#245);
#243=SHAPE_REPRESENTATION('',(#139),#235);
#244=PRODUCT_DEFINITION_CONTEXT('part definition',#249,'design');
#245=PRODUCT_DEFINITION('375200054_Steelpres','375200054_Steelpres',#246,
#244);
#246=PRODUCT_DEFINITION_FORMATION('0',$,#251);
#247=PRODUCT_RELATED_PRODUCT_CATEGORY('375200054_Steelpres',
'375200054_Steelpres',(#251));
#248=APPLICATION_PROTOCOL_DEFINITION('international standard',
'automotive_design',2009,#249);
#249=APPLICATION_CONTEXT(
'Core Data for Automotive Mechanical Design Process');
#250=PRODUCT_CONTEXT('part definition',#249,'mechanical');
#251=PRODUCT('375200054_Steelpres','375200054_Steelpres',$,(#250));
#252=PRESENTATION_STYLE_ASSIGNMENT((#253));
#253=SURFACE_STYLE_USAGE(.BOTH.,#256);
#254=SURFACE_STYLE_RENDERING_WITH_PROPERTIES($,#260,(#255));
#255=SURFACE_STYLE_TRANSPARENT(0.);
#256=SURFACE_SIDE_STYLE('',(#257,#254));
#257=SURFACE_STYLE_FILL_AREA(#258);
#258=FILL_AREA_STYLE('',(#259));
#259=FILL_AREA_STYLE_COLOUR('',#260);
#260=COLOUR_RGB('',0.83921568627451,0.886274509803922,0.854901960784314);
ENDSEC;
END-ISO-10303-21;
