ISO-10303-21;
HEADER;
FILE_DESCRIPTION (( 'STEP AP203' ),
    '1' );
FILE_NAME ('OT214-350-356x3_OSTP.step',
    '2021-02-10T12:53:04',
    ( '' ),
    ( '' ),
    'SwSTEP 2.0',
    'SolidWorks 2014',
    '' );
FILE_SCHEMA (( 'CONFIG_CONTROL_DESIGN' ));
ENDSEC;

DATA;
#1 = VERTEX_POINT ( 'NONE', #19 ) ;
#2 = CARTESIAN_POINT ( 'NONE',  ( -178.0000000000000000, 0.0000000000000000000, 0.0000000000000000000 ) ) ;
#3 = CC_DESIGN_PERSON_AND_ORGANIZATION_ASSIGNMENT ( #64, #201, ( #251 ) ) ;
#4 = DIRECTION ( 'NONE',  ( 0.0000000000000000000, 0.0000000000000000000, 1.000000000000000000 ) ) ;
#5 = PRODUCT ( 'OT214-350-356x3_OSTP', 'OT214-350-356x3_OSTP', '', ( #34 ) ) ;
#6 = APPROVAL_STATUS ( 'not_yet_approved' ) ;
#7 = PRODUCT_DEFINITION_SHAPE ( 'NONE', 'NONE',  #249 ) ;
#8 = DATE_AND_TIME ( #214, #69 ) ;
#9 = ORIENTED_EDGE ( 'NONE', *, *, #244, .F. ) ;
#10 =( NAMED_UNIT ( * ) SI_UNIT ( $, .STERADIAN. ) SOLID_ANGLE_UNIT ( ) );
#11 = APPLICATION_PROTOCOL_DEFINITION ( 'international standard', 'config_control_design', 1994, #139 ) ;
#12 = CC_DESIGN_APPROVAL ( #80, ( #249 ) ) ;
#13 = DATE_AND_TIME ( #149, #197 ) ;
#14 = DIRECTION ( 'NONE',  ( 1.000000000000000000, 0.0000000000000000000, 0.0000000000000000000 ) ) ;
#15 = COORDINATED_UNIVERSAL_TIME_OFFSET ( 1, 0, .AHEAD. ) ;
#16 = ORIENTED_EDGE ( 'NONE', *, *, #98, .T. ) ;
#17 = DATE_AND_TIME ( #159, #220 ) ;
#18 = EDGE_CURVE ( 'NONE', #109, #26, #43, .T. ) ;
#19 = CARTESIAN_POINT ( 'NONE',  ( 449.9999999999999400, 628.0000000000000000, 0.0000000000000000000 ) ) ;
#20 = PLANE ( 'NONE',  #71 ) ;
#21 = COORDINATED_UNIVERSAL_TIME_OFFSET ( 1, 0, .AHEAD. ) ;
#22 = DIRECTION ( 'NONE',  ( 0.0000000000000000000, 0.0000000000000000000, 1.000000000000000000 ) ) ;
#23 = DIRECTION ( 'NONE',  ( 0.0000000000000000000, 1.000000000000000000, 0.0000000000000000000 ) ) ;
#24 = PERSON_AND_ORGANIZATION ( #67, #78 ) ;
#25 = EDGE_CURVE ( 'NONE', #73, #172, #41, .T. ) ;
#26 = VERTEX_POINT ( 'NONE', #188 ) ;
#27 = CARTESIAN_POINT ( 'NONE',  ( 450.0000000000000000, 450.0000000000000000, 0.0000000000000000000 ) ) ;
#28 = CARTESIAN_POINT ( 'NONE',  ( 450.0000000000000000, 0.0000000000000000000, 0.0000000000000000000 ) ) ;
#29 = DIRECTION ( 'NONE',  ( 0.0000000000000000000, 1.000000000000000000, 0.0000000000000000000 ) ) ;
#30 = PERSON_AND_ORGANIZATION ( #67, #78 ) ;
#31 = ORIENTED_EDGE ( 'NONE', *, *, #160, .F. ) ;
#32 = DIRECTION ( 'NONE',  ( 1.000000000000000000, 0.0000000000000000000, 0.0000000000000000000 ) ) ;
#33 = ORIENTED_EDGE ( 'NONE', *, *, #98, .F. ) ;
#34 = MECHANICAL_CONTEXT ( 'NONE', #139, 'mechanical' ) ;
#35 = DATE_TIME_ROLE ( 'creation_date' ) ;
#36 = LOCAL_TIME ( 13, 53, 4.000000000000000000, #21 ) ;
#37 = AXIS2_PLACEMENT_3D ( 'NONE', #176, #199, #52 ) ;
#38 = ORIENTED_EDGE ( 'NONE', *, *, #148, .T. ) ;
#39 = EDGE_CURVE ( 'NONE', #1, #172, #207, .T. ) ;
#40 = DIRECTION ( 'NONE',  ( 1.000000000000000000, 0.0000000000000000000, 0.0000000000000000000 ) ) ;
#41 = CIRCLE ( 'NONE', #152, 178.0000000000000300 ) ;
#42 = CARTESIAN_POINT ( 'NONE',  ( 449.9999999999999400, 450.0000000000000000, 0.0000000000000000000 ) ) ;
#43 = CIRCLE ( 'NONE', #103, 275.0000000000000600 ) ;
#44 = DIRECTION ( 'NONE',  ( 1.000000000000000000, 0.0000000000000000000, 0.0000000000000000000 ) ) ;
#45 = CARTESIAN_POINT ( 'NONE',  ( 449.9999999999999400, 272.0000000000000000, -2.179871302482289400E-014 ) ) ;
#46 = DIRECTION ( 'NONE',  ( 0.0000000000000000000, 0.0000000000000000000, 1.000000000000000000 ) ) ;
#47 = CARTESIAN_POINT ( 'NONE',  ( 0.0000000000000000000, 0.0000000000000000000, 0.0000000000000000000 ) ) ;
#48 = CIRCLE ( 'NONE', #180, 178.0000000000000300 ) ;
#49 = APPROVAL ( #102, 'UNSPECIFIED' ) ;
#50 = DIRECTION ( 'NONE',  ( 1.000000000000000000, 6.123233995736766000E-017, -0.0000000000000000000 ) ) ;
#51 = ORIENTED_EDGE ( 'NONE', *, *, #18, .F. ) ;
#52 = DIRECTION ( 'NONE',  ( 0.0000000000000000000, 0.0000000000000000000, 1.000000000000000000 ) ) ;
#53 = EDGE_CURVE ( 'NONE', #248, #1, #55, .T. ) ;
#54 = ADVANCED_FACE ( 'NONE', ( #227, #252 ), #20, .F. ) ;
#55 = CIRCLE ( 'NONE', #217, 178.0000000000000300 ) ;
#56 = FACE_OUTER_BOUND ( 'NONE', #133, .T. ) ;
#57 = CARTESIAN_POINT ( 'NONE',  ( 0.0000000000000000000, 0.0000000000000000000, 0.0000000000000000000 ) ) ;
#58 = CC_DESIGN_APPROVAL ( #49, ( #251 ) ) ;
#59 = ORIENTED_EDGE ( 'NONE', *, *, #25, .F. ) ;
#60 = ORIENTED_EDGE ( 'NONE', *, *, #236, .T. ) ;
#61 = CARTESIAN_POINT ( 'NONE',  ( 450.0000000000000000, 0.0000000000000000000, 0.0000000000000000000 ) ) ;
#62 = CARTESIAN_POINT ( 'NONE',  ( 449.9999999999999400, 625.0000000000000000, 0.0000000000000000000 ) ) ;
#63 = EDGE_CURVE ( 'NONE', #171, #76, #88, .T. ) ;
#64 = PERSON_AND_ORGANIZATION ( #67, #78 ) ;
#65 = CARTESIAN_POINT ( 'NONE',  ( 450.0000000000000000, 0.0000000000000000000, 0.0000000000000000000 ) ) ;
#66 = CARTESIAN_POINT ( 'NONE',  ( 450.0000000000000000, 450.0000000000000000, 0.0000000000000000000 ) ) ;
#67 = PERSON ( 'UNSPECIFIED', 'UNSPECIFIED', 'UNSPECIFIED', ('UNSPECIFIED'), ('UNSPECIFIED'), ('UNSPECIFIED') ) ;
#68 = APPROVAL_DATE_TIME ( #17, #49 ) ;
#69 = LOCAL_TIME ( 13, 53, 4.000000000000000000, #15 ) ;
#70 = EDGE_CURVE ( 'NONE', #1, #248, #97, .T. ) ;
#71 = AXIS2_PLACEMENT_3D ( 'NONE', #233, #168, #130 ) ;
#72 = PERSON_AND_ORGANIZATION ( #67, #78 ) ;
#73 = VERTEX_POINT ( 'NONE', #131 ) ;
#74 = EDGE_LOOP ( 'NONE', ( #95, #147, #140, #110 ) ) ;
#75 = AXIS2_PLACEMENT_3D ( 'NONE', #232, #128, #96 ) ;
#76 = VERTEX_POINT ( 'NONE', #138 ) ;
#77 = DIRECTION ( 'NONE',  ( 0.0000000000000000000, 1.000000000000000000, 0.0000000000000000000 ) ) ;
#78 = ORGANIZATION ( 'UNSPECIFIED', 'UNSPECIFIED', '' ) ;
#79 = DIRECTION ( 'NONE',  ( 0.0000000000000000000, 0.0000000000000000000, 1.000000000000000000 ) ) ;
#80 = APPROVAL ( #242, 'UNSPECIFIED' ) ;
#81 = DIRECTION ( 'NONE',  ( 0.0000000000000000000, 0.0000000000000000000, 1.000000000000000000 ) ) ;
#82 = DIRECTION ( 'NONE',  ( 1.000000000000000000, 0.0000000000000000000, 0.0000000000000000000 ) ) ;
#83 = CARTESIAN_POINT ( 'NONE',  ( 0.0000000000000000000, 0.0000000000000000000, 0.0000000000000000000 ) ) ;
#84 = CC_DESIGN_DATE_AND_TIME_ASSIGNMENT ( #8, #35, ( #249 ) ) ;
#85 = PLANE ( 'NONE',  #222 ) ;
#86 = PERSON_AND_ORGANIZATION_ROLE ( 'creator' ) ;
#87 = CC_DESIGN_PERSON_AND_ORGANIZATION_ASSIGNMENT ( #24, #86, ( #212 ) ) ;
#88 = CIRCLE ( 'NONE', #164, 625.0000000000000000 ) ;
#89 = EDGE_CURVE ( 'NONE', #76, #26, #108, .T. ) ;
#90 = ORIENTED_EDGE ( 'NONE', *, *, #70, .F. ) ;
#91 = DESIGN_CONTEXT ( 'detailed design', #157, 'design' ) ;
#92 = COORDINATED_UNIVERSAL_TIME_OFFSET ( 1, 0, .AHEAD. ) ;
#93 = DATE_AND_TIME ( #162, #36 ) ;
#94 = CC_DESIGN_SECURITY_CLASSIFICATION ( #251, ( #212 ) ) ;
#95 = ORIENTED_EDGE ( 'NONE', *, *, #39, .F. ) ;
#96 = DIRECTION ( 'NONE',  ( 1.000000000000000000, 0.0000000000000000000, 0.0000000000000000000 ) ) ;
#97 = CIRCLE ( 'NONE', #235, 178.0000000000000300 ) ;
#98 = EDGE_CURVE ( 'NONE', #172, #73, #48, .T. ) ;
#99 = EDGE_LOOP ( 'NONE', ( #59, #33 ) ) ;
#100 = DIRECTION ( 'NONE',  ( 1.000000000000000000, 0.0000000000000000000, 0.0000000000000000000 ) ) ;
#101 = DIRECTION ( 'NONE',  ( 0.0000000000000000000, 1.000000000000000000, 0.0000000000000000000 ) ) ;
#102 = APPROVAL_STATUS ( 'not_yet_approved' ) ;
#103 = AXIS2_PLACEMENT_3D ( 'NONE', #114, #22, #40 ) ;
#104 = APPROVAL_PERSON_ORGANIZATION ( #229, #122, #155 ) ;
#105 = FACE_OUTER_BOUND ( 'NONE', #74, .T. ) ;
#106 = APPROVAL_ROLE ( '' ) ;
#107 = DATE_TIME_ROLE ( 'classification_date' ) ;
#108 = CIRCLE ( 'NONE', #206, 175.0000000000000300 ) ;
#109 = VERTEX_POINT ( 'NONE', #177 ) ;
#110 = ORIENTED_EDGE ( 'NONE', *, *, #25, .T. ) ;
#111 = AXIS2_PLACEMENT_3D ( 'NONE', #173, #115, #32 ) ;
#112 = COORDINATED_UNIVERSAL_TIME_OFFSET ( 1, 0, .AHEAD. ) ;
#113 = APPROVAL_DATE_TIME ( #93, #80 ) ;
#114 = CARTESIAN_POINT ( 'NONE',  ( 450.0000000000000000, 0.0000000000000000000, -2.143131898507868200E-014 ) ) ;
#115 = DIRECTION ( 'NONE',  ( 0.0000000000000000000, 0.0000000000000000000, 1.000000000000000000 ) ) ;
#116 = ORIENTED_EDGE ( 'NONE', *, *, #18, .T. ) ;
#117 = DIRECTION ( 'NONE',  ( 1.000000000000000000, 6.123233995736766000E-017, 0.0000000000000000000 ) ) ;
#118 = DIRECTION ( 'NONE',  ( 1.000000000000000000, 6.123233995736766000E-017, 0.0000000000000000000 ) ) ;
#119 = DIRECTION ( 'NONE',  ( 0.0000000000000000000, 0.0000000000000000000, 1.000000000000000000 ) ) ;
#120 =( NAMED_UNIT ( * ) PLANE_ANGLE_UNIT ( ) SI_UNIT ( $, .RADIAN. ) );
#121 = CIRCLE ( 'NONE', #37, 175.0000000000000300 ) ;
#122 = APPROVAL ( #6, 'UNSPECIFIED' ) ;
#123 = ADVANCED_FACE ( 'NONE', ( #132 ), #151, .T. ) ;
#124 = ADVANCED_FACE ( 'NONE', ( #56 ), #169, .F. ) ;
#125 = CC_DESIGN_PERSON_AND_ORGANIZATION_ASSIGNMENT ( #30, #225, ( #212 ) ) ;
#126 = CIRCLE ( 'NONE', #165, 175.0000000000000000 ) ;
#127 = ORIENTED_EDGE ( 'NONE', *, *, #148, .F. ) ;
#128 = DIRECTION ( 'NONE',  ( 0.0000000000000000000, 0.0000000000000000000, 1.000000000000000000 ) ) ;
#129 = ORIENTED_EDGE ( 'NONE', *, *, #63, .F. ) ;
#130 = DIRECTION ( 'NONE',  ( 0.0000000000000000000, -0.0000000000000000000, 1.000000000000000000 ) ) ;
#131 = CARTESIAN_POINT ( 'NONE',  ( 178.0000000000000300, 0.0000000000000000000, -2.179871302482289400E-014 ) ) ;
#132 = FACE_OUTER_BOUND ( 'NONE', #247, .T. ) ;
#133 = EDGE_LOOP ( 'NONE', ( #38, #191, #9, #51 ) ) ;
#134 = DIRECTION ( 'NONE',  ( 0.0000000000000000000, 0.0000000000000000000, 1.000000000000000000 ) ) ;
#135 =( LENGTH_UNIT ( ) NAMED_UNIT ( * ) SI_UNIT ( .MILLI., .METRE. ) );
#136 = DIRECTION ( 'NONE',  ( 0.0000000000000000000, 0.0000000000000000000, 1.000000000000000000 ) ) ;
#137 = FACE_BOUND ( 'NONE', #215, .T. ) ;
#138 = CARTESIAN_POINT ( 'NONE',  ( -175.0000000000000000, 0.0000000000000000000, 0.0000000000000000000 ) ) ;
#139 = APPLICATION_CONTEXT ( 'configuration controlled 3d designs of mechanical parts and assemblies' ) ;
#140 = ORIENTED_EDGE ( 'NONE', *, *, #160, .T. ) ;
#141 = ORIENTED_EDGE ( 'NONE', *, *, #70, .T. ) ;
#142 = SECURITY_CLASSIFICATION_LEVEL ( 'unclassified' ) ;
#143 = ADVANCED_FACE ( 'NONE', ( #221 ), #241, .F. ) ;
#144 = PERSON_AND_ORGANIZATION ( #67, #78 ) ;
#145 = CIRCLE ( 'NONE', #182, 175.0000000000000000 ) ;
#146 = ADVANCED_FACE ( 'NONE', ( #105 ), #179, .T. ) ;
#147 = ORIENTED_EDGE ( 'NONE', *, *, #53, .F. ) ;
#148 = EDGE_CURVE ( 'NONE', #109, #171, #145, .T. ) ;
#149 = CALENDAR_DATE ( 2021, 10, 2 ) ;
#150 = EDGE_LOOP ( 'NONE', ( #226, #141 ) ) ;
#151 = TOROIDAL_SURFACE ( 'NONE', #228, 450.0000000000000000, 178.0000000000000300 ) ;
#152 = AXIS2_PLACEMENT_3D ( 'NONE', #57, #77, #79 ) ;
#153 = DIRECTION ( 'NONE',  ( 1.000000000000000000, 0.0000000000000000000, 0.0000000000000000000 ) ) ;
#154 = DIRECTION ( 'NONE',  ( 0.0000000000000000000, 0.0000000000000000000, 1.000000000000000000 ) ) ;
#155 = APPROVAL_ROLE ( '' ) ;
#156 = ORIENTED_EDGE ( 'NONE', *, *, #39, .T. ) ;
#157 = APPLICATION_CONTEXT ( 'configuration controlled 3d designs of mechanical parts and assemblies' ) ;
#158 = ADVANCED_BREP_SHAPE_REPRESENTATION ( 'OT214-350-356x3_OSTP', ( #211, #175 ), #194 ) ;
#159 = CALENDAR_DATE ( 2021, 10, 2 ) ;
#160 = EDGE_CURVE ( 'NONE', #248, #73, #202, .T. ) ;
#161 = APPROVAL_PERSON_ORGANIZATION ( #144, #49, #243 ) ;
#162 = CALENDAR_DATE ( 2021, 10, 2 ) ;
#163 = ORIENTED_EDGE ( 'NONE', *, *, #244, .T. ) ;
#164 = AXIS2_PLACEMENT_3D ( 'NONE', #28, #253, #153 ) ;
#165 = AXIS2_PLACEMENT_3D ( 'NONE', #27, #117, #101 ) ;
#166 = ORIENTED_EDGE ( 'NONE', *, *, #236, .F. ) ;
#167 = CC_DESIGN_PERSON_AND_ORGANIZATION_ASSIGNMENT ( #246, #203, ( #249 ) ) ;
#168 = DIRECTION ( 'NONE',  ( 0.0000000000000000000, 1.000000000000000000, 0.0000000000000000000 ) ) ;
#169 = TOROIDAL_SURFACE ( 'NONE', #187, 450.0000000000000000, 175.0000000000000300 ) ;
#170 = CARTESIAN_POINT ( 'NONE',  ( 0.0000000000000000000, 0.0000000000000000000, 0.0000000000000000000 ) ) ;
#171 = VERTEX_POINT ( 'NONE', #62 ) ;
#172 = VERTEX_POINT ( 'NONE', #2 ) ;
#173 = CARTESIAN_POINT ( 'NONE',  ( 450.0000000000000000, 0.0000000000000000000, 0.0000000000000000000 ) ) ;
#174 = DIRECTION ( 'NONE',  ( 1.000000000000000000, 6.123233995736766000E-017, 0.0000000000000000000 ) ) ;
#175 = AXIS2_PLACEMENT_3D ( 'NONE', #47, #119, #14 ) ;
#176 = CARTESIAN_POINT ( 'NONE',  ( 0.0000000000000000000, 0.0000000000000000000, 0.0000000000000000000 ) ) ;
#177 = CARTESIAN_POINT ( 'NONE',  ( 450.0000000000000000, 275.0000000000000000, -2.143131898507868900E-014 ) ) ;
#178 = DATE_AND_TIME ( #213, #245 ) ;
#179 = TOROIDAL_SURFACE ( 'NONE', #111, 450.0000000000000000, 178.0000000000000300 ) ;
#180 = AXIS2_PLACEMENT_3D ( 'NONE', #83, #218, #239 ) ;
#181 = PERSON_AND_ORGANIZATION ( #67, #78 ) ;
#182 = AXIS2_PLACEMENT_3D ( 'NONE', #66, #118, #23 ) ;
#183 = EDGE_LOOP ( 'NONE', ( #163, #190 ) ) ;
#184 = ADVANCED_FACE ( 'NONE', ( #137, #193 ), #85, .T. ) ;
#185 = PRODUCT_RELATED_PRODUCT_CATEGORY ( 'detail', '', ( #5 ) ) ;
#186 = SHAPE_DEFINITION_REPRESENTATION ( #7, #158 ) ;
#187 = AXIS2_PLACEMENT_3D ( 'NONE', #216, #46, #100 ) ;
#188 = CARTESIAN_POINT ( 'NONE',  ( 175.0000000000000300, 0.0000000000000000000, -2.143131898507868900E-014 ) ) ;
#189 = APPROVAL_DATE_TIME ( #13, #122 ) ;
#190 = ORIENTED_EDGE ( 'NONE', *, *, #89, .T. ) ;
#191 = ORIENTED_EDGE ( 'NONE', *, *, #63, .T. ) ;
#192 = AXIS2_PLACEMENT_3D ( 'NONE', #219, #134, #238 ) ;
#193 = FACE_OUTER_BOUND ( 'NONE', #150, .T. ) ;
#194 =( GEOMETRIC_REPRESENTATION_CONTEXT ( 3 ) GLOBAL_UNCERTAINTY_ASSIGNED_CONTEXT ( ( #195 ) ) GLOBAL_UNIT_ASSIGNED_CONTEXT ( ( #135, #120, #10 ) ) REPRESENTATION_CONTEXT ( 'NONE', 'WORKASPACE' ) );
#195 = UNCERTAINTY_MEASURE_WITH_UNIT (LENGTH_MEASURE( 1.000000000000000100E-005 ), #135, 'distance_accuracy_value', 'NONE');
#196 = CARTESIAN_POINT ( 'NONE',  ( 449.9999999999999400, 450.0000000000000000, 0.0000000000000000000 ) ) ;
#197 = LOCAL_TIME ( 13, 53, 4.000000000000000000, #250 ) ;
#198 = APPROVAL_PERSON_ORGANIZATION ( #72, #80, #106 ) ;
#199 = DIRECTION ( 'NONE',  ( 0.0000000000000000000, 1.000000000000000000, 0.0000000000000000000 ) ) ;
#200 = CARTESIAN_POINT ( 'NONE',  ( 449.9999999999999400, 450.0000000000000000, 0.0000000000000000000 ) ) ;
#201 = PERSON_AND_ORGANIZATION_ROLE ( 'classification_officer' ) ;
#202 = CIRCLE ( 'NONE', #192, 271.9999999999999400 ) ;
#203 = PERSON_AND_ORGANIZATION_ROLE ( 'creator' ) ;
#204 = PERSON_AND_ORGANIZATION_ROLE ( 'design_owner' ) ;
#205 = ORIENTED_EDGE ( 'NONE', *, *, #89, .F. ) ;
#206 = AXIS2_PLACEMENT_3D ( 'NONE', #170, #29, #136 ) ;
#207 = CIRCLE ( 'NONE', #75, 628.0000000000001100 ) ;
#208 = AXIS2_PLACEMENT_3D ( 'NONE', #65, #237, #44 ) ;
#209 = CLOSED_SHELL ( 'NONE', ( #124, #123, #146, #184, #54, #143 ) ) ;
#210 = DIRECTION ( 'NONE',  ( 0.0000000000000000000, 0.0000000000000000000, 1.000000000000000000 ) ) ;
#211 = MANIFOLD_SOLID_BREP ( 'cut-body', #209 ) ;
#212 = PRODUCT_DEFINITION_FORMATION_WITH_SPECIFIED_SOURCE ( 'ANY', '', #5, .NOT_KNOWN. ) ;
#213 = CALENDAR_DATE ( 2021, 10, 2 ) ;
#214 = CALENDAR_DATE ( 2021, 10, 2 ) ;
#215 = EDGE_LOOP ( 'NONE', ( #127, #166 ) ) ;
#216 = CARTESIAN_POINT ( 'NONE',  ( 450.0000000000000000, 0.0000000000000000000, 0.0000000000000000000 ) ) ;
#217 = AXIS2_PLACEMENT_3D ( 'NONE', #42, #234, #210 ) ;
#218 = DIRECTION ( 'NONE',  ( 0.0000000000000000000, 1.000000000000000000, 0.0000000000000000000 ) ) ;
#219 = CARTESIAN_POINT ( 'NONE',  ( 450.0000000000000000, 0.0000000000000000000, -2.179871302482288800E-014 ) ) ;
#220 = LOCAL_TIME ( 13, 53, 4.000000000000000000, #112 ) ;
#221 = FACE_OUTER_BOUND ( 'NONE', #230, .T. ) ;
#222 = AXIS2_PLACEMENT_3D ( 'NONE', #196, #50, #81 ) ;
#223 = APPLICATION_PROTOCOL_DEFINITION ( 'international standard', 'config_control_design', 1994, #157 ) ;
#224 = CC_DESIGN_PERSON_AND_ORGANIZATION_ASSIGNMENT ( #181, #204, ( #5 ) ) ;
#225 = PERSON_AND_ORGANIZATION_ROLE ( 'design_supplier' ) ;
#226 = ORIENTED_EDGE ( 'NONE', *, *, #53, .T. ) ;
#227 = FACE_BOUND ( 'NONE', #183, .T. ) ;
#228 = AXIS2_PLACEMENT_3D ( 'NONE', #61, #4, #82 ) ;
#229 = PERSON_AND_ORGANIZATION ( #67, #78 ) ;
#230 = EDGE_LOOP ( 'NONE', ( #129, #60, #116, #205 ) ) ;
#231 = CC_DESIGN_DATE_AND_TIME_ASSIGNMENT ( #178, #107, ( #251 ) ) ;
#232 = CARTESIAN_POINT ( 'NONE',  ( 450.0000000000000000, 0.0000000000000000000, 0.0000000000000000000 ) ) ;
#233 = CARTESIAN_POINT ( 'NONE',  ( 0.0000000000000000000, 0.0000000000000000000, 0.0000000000000000000 ) ) ;
#234 = DIRECTION ( 'NONE',  ( 1.000000000000000000, 6.123233995736766000E-017, 0.0000000000000000000 ) ) ;
#235 = AXIS2_PLACEMENT_3D ( 'NONE', #200, #174, #154 ) ;
#236 = EDGE_CURVE ( 'NONE', #171, #109, #126, .T. ) ;
#237 = DIRECTION ( 'NONE',  ( 0.0000000000000000000, 0.0000000000000000000, 1.000000000000000000 ) ) ;
#238 = DIRECTION ( 'NONE',  ( 1.000000000000000000, 0.0000000000000000000, 0.0000000000000000000 ) ) ;
#239 = DIRECTION ( 'NONE',  ( 0.0000000000000000000, 0.0000000000000000000, 1.000000000000000000 ) ) ;
#240 = CC_DESIGN_APPROVAL ( #122, ( #212 ) ) ;
#241 = TOROIDAL_SURFACE ( 'NONE', #208, 450.0000000000000000, 175.0000000000000300 ) ;
#242 = APPROVAL_STATUS ( 'not_yet_approved' ) ;
#243 = APPROVAL_ROLE ( '' ) ;
#244 = EDGE_CURVE ( 'NONE', #26, #76, #121, .T. ) ;
#245 = LOCAL_TIME ( 13, 53, 4.000000000000000000, #92 ) ;
#246 = PERSON_AND_ORGANIZATION ( #67, #78 ) ;
#247 = EDGE_LOOP ( 'NONE', ( #90, #156, #16, #31 ) ) ;
#248 = VERTEX_POINT ( 'NONE', #45 ) ;
#249 = PRODUCT_DEFINITION ( 'UNKNOWN', '', #212, #91 ) ;
#250 = COORDINATED_UNIVERSAL_TIME_OFFSET ( 1, 0, .AHEAD. ) ;
#251 = SECURITY_CLASSIFICATION ( '', '', #142 ) ;
#252 = FACE_OUTER_BOUND ( 'NONE', #99, .T. ) ;
#253 = DIRECTION ( 'NONE',  ( 0.0000000000000000000, 0.0000000000000000000, 1.000000000000000000 ) ) ;
ENDSEC;
END-ISO-10303-21;
