ISO-10303-21;
HEADER;
FILE_DESCRIPTION (( 'STEP AP203' ),
    '1' );
FILE_NAME ('3D_R1655_26.9x1.6_17362120.STEP',
    '2024-08-05T08:41:16',
    ( '' ),
    ( '' ),
    'SwSTEP 2.0',
    'SolidWorks 2024',
    '' );
FILE_SCHEMA (( 'CONFIG_CONTROL_DESIGN' ));
ENDSEC;

DATA;
#1 = EDGE_LOOP ( 'NONE', ( #86, #105, #83, #68 ) ) ;
#2 = AXIS2_PLACEMENT_3D ( 'NONE', #171, #249, #211 ) ;
#3 = LOCAL_TIME ( 10, 41, 16.00000000000000000, #222 ) ;
#4 = ADVANCED_FACE ( 'NONE', ( #189 ), #5, .T. ) ;
#5 = TOROIDAL_SURFACE ( 'NONE', #111, 57.00000000000000000, 13.44999999999999751 ) ;
#6 = COORDINATED_UNIVERSAL_TIME_OFFSET ( 1, 0, .AHEAD. ) ;
#7 = ORIENTED_EDGE ( 'NONE', *, *, #107, .T. ) ;
#8 = APPROVAL_PERSON_ORGANIZATION ( #70, #98, #182 ) ;
#9 = APPLICATION_CONTEXT ( 'configuration controlled 3d designs of mechanical parts and assemblies' ) ;
#10 = EDGE_CURVE ( 'NONE', #247, #240, #149, .T. ) ;
#11 = COORDINATED_UNIVERSAL_TIME_OFFSET ( 1, 0, .AHEAD. ) ;
#12 = ORIENTED_EDGE ( 'NONE', *, *, #199, .F. ) ;
#13 = CARTESIAN_POINT ( 'NONE',  ( -45.15000000000001279, 0.000000000000000000, -1.097819427934387227E-14 ) ) ;
#14 = DIRECTION ( 'NONE',  ( 0.000000000000000000, 0.000000000000000000, 1.000000000000000000 ) ) ;
#15 = ORIENTED_EDGE ( 'NONE', *, *, #232, .F. ) ;
#16 = FACE_BOUND ( 'NONE', #73, .T. ) ;
#17 = ORGANIZATION ( 'UNSPECIFIED', 'UNSPECIFIED', '' ) ;
#18 = DIRECTION ( 'NONE',  ( 0.000000000000000000, 0.000000000000000000, 1.000000000000000000 ) ) ;
#19 = PERSON_AND_ORGANIZATION ( #42, #17 ) ;
#20 = DIRECTION ( 'NONE',  ( 0.000000000000000000, 1.000000000000000000, 0.000000000000000000 ) ) ;
#21 = APPROVAL_DATE_TIME ( #201, #98 ) ;
#22 = APPROVAL ( #140, 'UNSPECIFIED' ) ;
#23 = UNCERTAINTY_MEASURE_WITH_UNIT (LENGTH_MEASURE( 1.000000000000000082E-05 ), #67, 'distance_accuracy_value', 'NONE');
#24 = APPROVAL_DATE_TIME ( #216, #22 ) ;
#25 = CALENDAR_DATE ( 2024, 5, 8 ) ;
#26 = DATE_AND_TIME ( #157, #221 ) ;
#27 = AXIS2_PLACEMENT_3D ( 'NONE', #100, #53, #225 ) ;
#28 = APPROVAL ( #161, 'UNSPECIFIED' ) ;
#29 = FACE_OUTER_BOUND ( 'NONE', #32, .T. ) ;
#30 = CARTESIAN_POINT ( 'NONE',  ( -57.00000000000000000, 0.000000000000000000, -1.385951437259359111E-14 ) ) ;
#31 = FACE_OUTER_BOUND ( 'NONE', #36, .T. ) ;
#32 = EDGE_LOOP ( 'NONE', ( #113, #55 ) ) ;
#33 = CARTESIAN_POINT ( 'NONE',  ( 0.000000000000000000, -1.451206456989612926E-15, 0.000000000000000000 ) ) ;
#34 = PERSON_AND_ORGANIZATION_ROLE ( 'classification_officer' ) ;
#35 = CIRCLE ( 'NONE', #44, 11.84999999999999254 ) ;
#36 = EDGE_LOOP ( 'NONE', ( #50, #12, #71, #7 ) ) ;
#37 = DATE_AND_TIME ( #170, #126 ) ;
#38 = DIRECTION ( 'NONE',  ( 1.000000000000000000, 0.000000000000000000, 0.000000000000000000 ) ) ;
#39 = ORIENTED_EDGE ( 'NONE', *, *, #173, .T. ) ;
#40 = EDGE_CURVE ( 'NONE', #183, #152, #220, .T. ) ;
#41 = CARTESIAN_POINT ( 'NONE',  ( 0.000000000000000000, 0.000000000000000000, 0.000000000000000000 ) ) ;
#42 = PERSON ( 'UNSPECIFIED', 'UNSPECIFIED', 'UNSPECIFIED', ('UNSPECIFIED'), ('UNSPECIFIED'), ('UNSPECIFIED') ) ;
#43 = MECHANICAL_CONTEXT ( 'NONE', #9, 'mechanical' ) ;
#44 = AXIS2_PLACEMENT_3D ( 'NONE', #30, #226, #128 ) ;
#45 = ADVANCED_BREP_SHAPE_REPRESENTATION ( '3D_R1655_26.9x1.6_17362120', ( #154, #58 ), #79 ) ;
#46 = AXIS2_PLACEMENT_3D ( 'NONE', #48, #131, #96 ) ;
#47 = EDGE_CURVE ( 'NONE', #240, #202, #118, .T. ) ;
#48 = CARTESIAN_POINT ( 'NONE',  ( -57.00000000000000000, 0.000000000000000000, -1.047073013270991512E-14 ) ) ;
#49 = DATE_AND_TIME ( #25, #3 ) ;
#50 = ORIENTED_EDGE ( 'NONE', *, *, #159, .F. ) ;
#51 = DIRECTION ( 'NONE',  ( -1.000000000000000000, 0.000000000000000000, 2.926707433950024016E-15 ) ) ;
#52 = CARTESIAN_POINT ( 'NONE',  ( -1.668223237351513744E-13, 0.000000000000000000, -57.00000000000000000 ) ) ;
#53 = DIRECTION ( 'NONE',  ( -2.431493749577822656E-16, 0.000000000000000000, 1.000000000000000000 ) ) ;
#54 = CC_DESIGN_APPROVAL ( #98, ( #228 ) ) ;
#55 = ORIENTED_EDGE ( 'NONE', *, *, #173, .F. ) ;
#56 = CALENDAR_DATE ( 2024, 5, 8 ) ;
#57 = APPROVAL_STATUS ( 'not_yet_approved' ) ;
#58 = AXIS2_PLACEMENT_3D ( 'NONE', #41, #230, #38 ) ;
#59 = CIRCLE ( 'NONE', #46, 13.44999999999999751 ) ;
#60 = CIRCLE ( 'NONE', #218, 11.84999999999999254 ) ;
#61 = CARTESIAN_POINT ( 'NONE',  ( 0.000000000000000000, 0.000000000000000000, 0.000000000000000000 ) ) ;
#62 = PERSON_AND_ORGANIZATION ( #42, #17 ) ;
#63 = PRODUCT ( '3D_R1655_26.9x1.6_17362120', '3D_R1655_26.9x1.6_17362120', '', ( #43 ) ) ;
#64 = APPLICATION_CONTEXT ( 'configuration controlled 3d designs of mechanical parts and assemblies' ) ;
#65 = ADVANCED_FACE ( 'NONE', ( #213 ), #175, .T. ) ;
#66 = ORIENTED_EDGE ( 'NONE', *, *, #232, .T. ) ;
#67 =( LENGTH_UNIT ( ) NAMED_UNIT ( * ) SI_UNIT ( .MILLI., .METRE. ) );
#68 = ORIENTED_EDGE ( 'NONE', *, *, #10, .F. ) ;
#69 = CARTESIAN_POINT ( 'NONE',  ( -2.015038068274591333E-13, 0.000000000000000000, -68.84999999999999432 ) ) ;
#70 = PERSON_AND_ORGANIZATION ( #42, #17 ) ;
#71 = ORIENTED_EDGE ( 'NONE', *, *, #237, .T. ) ;
#72 = FACE_BOUND ( 'NONE', #123, .T. ) ;
#73 = EDGE_LOOP ( 'NONE', ( #204, #132 ) ) ;
#74 = DIRECTION ( 'NONE',  ( 0.000000000000000000, 0.000000000000000000, 1.000000000000000000 ) ) ;
#75 = EDGE_LOOP ( 'NONE', ( #235, #39, #158, #108 ) ) ;
#76 = DIRECTION ( 'NONE',  ( -1.000000000000000000, 0.000000000000000000, 2.926707433950024016E-15 ) ) ;
#77 = CC_DESIGN_SECURITY_CLASSIFICATION ( #228, ( #120 ) ) ;
#78 = SECURITY_CLASSIFICATION_LEVEL ( 'unclassified' ) ;
#79 =( GEOMETRIC_REPRESENTATION_CONTEXT ( 3 ) GLOBAL_UNCERTAINTY_ASSIGNED_CONTEXT ( ( #23 ) ) GLOBAL_UNIT_ASSIGNED_CONTEXT ( ( #67, #200, #121 ) ) REPRESENTATION_CONTEXT ( 'NONE', 'WORKASPACE' ) );
#80 = CARTESIAN_POINT ( 'NONE',  ( 0.000000000000000000, 0.000000000000000000, 0.000000000000000000 ) ) ;
#81 = APPLICATION_PROTOCOL_DEFINITION ( 'international standard', 'config_control_design', 1994, #64 ) ;
#82 = CC_DESIGN_APPROVAL ( #22, ( #187 ) ) ;
#83 = ORIENTED_EDGE ( 'NONE', *, *, #47, .F. ) ;
#84 = PERSON_AND_ORGANIZATION ( #42, #17 ) ;
#85 = CC_DESIGN_APPROVAL ( #28, ( #120 ) ) ;
#86 = ORIENTED_EDGE ( 'NONE', *, *, #234, .T. ) ;
#87 = DIRECTION ( 'NONE',  ( 1.000000000000000000, 0.000000000000000000, 2.431493749577826600E-16 ) ) ;
#88 = DIRECTION ( 'NONE',  ( 0.000000000000000000, 1.000000000000000000, 0.000000000000000000 ) ) ;
#89 = EDGE_LOOP ( 'NONE', ( #146, #151, #66, #242 ) ) ;
#90 = CARTESIAN_POINT ( 'NONE',  ( 0.000000000000000000, 0.000000000000000000, 0.000000000000000000 ) ) ;
#91 = PRODUCT_RELATED_PRODUCT_CATEGORY ( 'detail', '', ( #63 ) ) ;
#92 = AXIS2_PLACEMENT_3D ( 'NONE', #95, #134, #214 ) ;
#93 = CIRCLE ( 'NONE', #188, 13.44999999999999751 ) ;
#94 = DIRECTION ( 'NONE',  ( 2.926707433950024016E-15, 0.000000000000000000, 1.000000000000000000 ) ) ;
#95 = CARTESIAN_POINT ( 'NONE',  ( -1.668223237351513744E-13, 0.000000000000000000, -57.00000000000000000 ) ) ;
#96 = DIRECTION ( 'NONE',  ( 1.000000000000000000, 0.000000000000000000, 2.431493749577827094E-16 ) ) ;
#97 = COORDINATED_UNIVERSAL_TIME_OFFSET ( 1, 0, .AHEAD. ) ;
#98 = APPROVAL ( #57, 'UNSPECIFIED' ) ;
#99 = SHAPE_DEFINITION_REPRESENTATION ( #101, #45 ) ;
#100 = CARTESIAN_POINT ( 'NONE',  ( -57.00000000000000000, 0.000000000000000000, -1.385951437259359111E-14 ) ) ;
#101 = PRODUCT_DEFINITION_SHAPE ( 'NONE', 'NONE',  #187 ) ;
#102 = APPLICATION_PROTOCOL_DEFINITION ( 'international standard', 'config_control_design', 1994, #9 ) ;
#103 = PERSON_AND_ORGANIZATION ( #42, #17 ) ;
#104 = ADVANCED_FACE ( 'NONE', ( #229 ), #215, .F. ) ;
#105 = ORIENTED_EDGE ( 'NONE', *, *, #250, .T. ) ;
#106 = DATE_TIME_ROLE ( 'creation_date' ) ;
#107 = EDGE_CURVE ( 'NONE', #137, #223, #139, .T. ) ;
#108 = ORIENTED_EDGE ( 'NONE', *, *, #129, .F. ) ;
#109 = DIRECTION ( 'NONE',  ( 0.000000000000000000, 0.000000000000000000, 1.000000000000000000 ) ) ;
#110 = PERSON_AND_ORGANIZATION_ROLE ( 'design_supplier' ) ;
#111 = AXIS2_PLACEMENT_3D ( 'NONE', #61, #20, #141 ) ;
#112 = CIRCLE ( 'NONE', #135, 70.45000000000000284 ) ;
#113 = ORIENTED_EDGE ( 'NONE', *, *, #234, .F. ) ;
#114 = CARTESIAN_POINT ( 'NONE',  ( -1.702111079750350804E-13, 0.000000000000000000, -57.00000000000000000 ) ) ;
#115 = DIRECTION ( 'NONE',  ( 0.000000000000000000, 1.000000000000000000, 0.000000000000000000 ) ) ;
#116 = ADVANCED_FACE ( 'NONE', ( #72, #147 ), #224, .T. ) ;
#117 = CARTESIAN_POINT ( 'NONE',  ( -57.00000000000000000, 0.000000000000000000, -1.047073013270991512E-14 ) ) ;
#118 = CIRCLE ( 'NONE', #2, 13.44999999999999751 ) ;
#119 = DIRECTION ( 'NONE',  ( 0.000000000000000000, 1.000000000000000000, 0.000000000000000000 ) ) ;
#120 = PRODUCT_DEFINITION_FORMATION_WITH_SPECIFIED_SOURCE ( 'ANY', '', #63, .NOT_KNOWN. ) ;
#121 =( NAMED_UNIT ( * ) SI_UNIT ( $, .STERADIAN. ) SOLID_ANGLE_UNIT ( ) );
#122 = PERSON_AND_ORGANIZATION ( #42, #17 ) ;
#123 = EDGE_LOOP ( 'NONE', ( #179, #15 ) ) ;
#124 = CLOSED_SHELL ( 'NONE', ( #104, #65, #4, #116, #210, #244 ) ) ;
#125 = CC_DESIGN_PERSON_AND_ORGANIZATION_ASSIGNMENT ( #103, #198, ( #187 ) ) ;
#126 = LOCAL_TIME ( 10, 41, 16.00000000000000000, #97 ) ;
#127 = DIRECTION ( 'NONE',  ( 2.926707433950024016E-15, 0.000000000000000000, 1.000000000000000000 ) ) ;
#128 = DIRECTION ( 'NONE',  ( 1.000000000000000000, 0.000000000000000000, 2.431493749577823149E-16 ) ) ;
#129 = EDGE_CURVE ( 'NONE', #202, #240, #59, .T. ) ;
#130 = CARTESIAN_POINT ( 'NONE',  ( -70.45000000000000284, 0.000000000000000000, -1.374108922589208843E-14 ) ) ;
#131 = DIRECTION ( 'NONE',  ( -2.431493749577822656E-16, 0.000000000000000000, 1.000000000000000000 ) ) ;
#132 = ORIENTED_EDGE ( 'NONE', *, *, #40, .T. ) ;
#133 = DIRECTION ( 'NONE',  ( 2.926707433950024016E-15, 0.000000000000000000, 1.000000000000000000 ) ) ;
#134 = DIRECTION ( 'NONE',  ( -1.000000000000000000, 0.000000000000000000, 2.926707433950024016E-15 ) ) ;
#135 = AXIS2_PLACEMENT_3D ( 'NONE', #169, #115, #74 ) ;
#136 = CARTESIAN_POINT ( 'NONE',  ( 0.000000000000000000, 0.000000000000000000, 0.000000000000000000 ) ) ;
#137 = VERTEX_POINT ( 'NONE', #13 ) ;
#138 = EDGE_LOOP ( 'NONE', ( #245, #174 ) ) ;
#139 = CIRCLE ( 'NONE', #27, 11.84999999999999254 ) ;
#140 = APPROVAL_STATUS ( 'not_yet_approved' ) ;
#141 = DIRECTION ( 'NONE',  ( 0.000000000000000000, 0.000000000000000000, 1.000000000000000000 ) ) ;
#142 = APPROVAL_ROLE ( '' ) ;
#143 = CC_DESIGN_PERSON_AND_ORGANIZATION_ASSIGNMENT ( #62, #177, ( #63 ) ) ;
#144 = AXIS2_PLACEMENT_3D ( 'NONE', #206, #205, #133 ) ;
#145 = AXIS2_PLACEMENT_3D ( 'NONE', #203, #246, #94 ) ;
#146 = ORIENTED_EDGE ( 'NONE', *, *, #40, .F. ) ;
#147 = FACE_OUTER_BOUND ( 'NONE', #138, .T. ) ;
#148 = CARTESIAN_POINT ( 'NONE',  ( -68.84999999999999432, 0.000000000000000000, -1.674083446584331153E-14 ) ) ;
#149 = CIRCLE ( 'NONE', #178, 43.55000000000000426 ) ;
#150 = CARTESIAN_POINT ( 'NONE',  ( -1.308468929884072693E-13, 0.000000000000000000, -43.55000000000000426 ) ) ;
#151 = ORIENTED_EDGE ( 'NONE', *, *, #159, .T. ) ;
#152 = VERTEX_POINT ( 'NONE', #243 ) ;
#153 = LOCAL_TIME ( 10, 41, 16.00000000000000000, #11 ) ;
#154 = MANIFOLD_SOLID_BREP ( 'Wandung1', #124 ) ;
#155 = PERSON_AND_ORGANIZATION ( #42, #17 ) ;
#156 = LOCAL_TIME ( 10, 41, 16.00000000000000000, #217 ) ;
#157 = CALENDAR_DATE ( 2024, 5, 8 ) ;
#158 = ORIENTED_EDGE ( 'NONE', *, *, #10, .T. ) ;
#159 = EDGE_CURVE ( 'NONE', #183, #223, #253, .T. ) ;
#160 = AXIS2_PLACEMENT_3D ( 'NONE', #90, #165, #109 ) ;
#161 = APPROVAL_STATUS ( 'not_yet_approved' ) ;
#162 = VERTEX_POINT ( 'NONE', #164 ) ;
#163 = DIRECTION ( 'NONE',  ( 0.000000000000000000, 0.000000000000000000, 1.000000000000000000 ) ) ;
#164 = CARTESIAN_POINT ( 'NONE',  ( -2.095753229616628916E-13, 0.000000000000000000, -70.45000000000000284 ) ) ;
#165 = DIRECTION ( 'NONE',  ( 0.000000000000000000, 1.000000000000000000, 0.000000000000000000 ) ) ;
#166 = AXIS2_PLACEMENT_3D ( 'NONE', #117, #186, #87 ) ;
#167 = PLANE ( 'NONE',  #144 ) ;
#168 = CC_DESIGN_PERSON_AND_ORGANIZATION_ASSIGNMENT ( #19, #34, ( #228 ) ) ;
#169 = CARTESIAN_POINT ( 'NONE',  ( 0.000000000000000000, 0.000000000000000000, 0.000000000000000000 ) ) ;
#170 = CALENDAR_DATE ( 2024, 5, 8 ) ;
#171 = CARTESIAN_POINT ( 'NONE',  ( -57.00000000000000000, 0.000000000000000000, -1.047073013270991512E-14 ) ) ;
#172 = DIRECTION ( 'NONE',  ( 0.000000000000000000, 0.000000000000000000, 1.000000000000000000 ) ) ;
#173 = EDGE_CURVE ( 'NONE', #162, #247, #93, .T. ) ;
#174 = ORIENTED_EDGE ( 'NONE', *, *, #129, .T. ) ;
#175 = TOROIDAL_SURFACE ( 'NONE', #208, 57.00000000000000000, 13.44999999999999751 ) ;
#176 = CIRCLE ( 'NONE', #195, 45.15000000000001279 ) ;
#177 = PERSON_AND_ORGANIZATION_ROLE ( 'design_owner' ) ;
#178 = AXIS2_PLACEMENT_3D ( 'NONE', #227, #119, #18 ) ;
#179 = ORIENTED_EDGE ( 'NONE', *, *, #107, .F. ) ;
#180 = CARTESIAN_POINT ( 'NONE',  ( 0.000000000000000000, 0.000000000000000000, 0.000000000000000000 ) ) ;
#181 = APPROVAL_PERSON_ORGANIZATION ( #84, #28, #239 ) ;
#182 = APPROVAL_ROLE ( '' ) ;
#183 = VERTEX_POINT ( 'NONE', #69 ) ;
#184 = DIRECTION ( 'NONE',  ( 0.000000000000000000, 1.000000000000000000, 0.000000000000000000 ) ) ;
#185 = DIRECTION ( 'NONE',  ( 0.000000000000000000, 0.000000000000000000, 1.000000000000000000 ) ) ;
#186 = DIRECTION ( 'NONE',  ( -2.431493749577826600E-16, 0.000000000000000000, 1.000000000000000000 ) ) ;
#187 = PRODUCT_DEFINITION ( 'UNKNOWN', '', #120, #192 ) ;
#188 = AXIS2_PLACEMENT_3D ( 'NONE', #114, #76, #127 ) ;
#189 = FACE_OUTER_BOUND ( 'NONE', #75, .T. ) ;
#190 = APPROVAL_DATE_TIME ( #49, #28 ) ;
#191 = DIRECTION ( 'NONE',  ( 0.000000000000000000, 1.000000000000000000, 0.000000000000000000 ) ) ;
#192 = DESIGN_CONTEXT ( 'detailed design', #64, 'design' ) ;
#193 = CC_DESIGN_DATE_AND_TIME_ASSIGNMENT ( #37, #251, ( #228 ) ) ;
#194 = CALENDAR_DATE ( 2024, 5, 8 ) ;
#195 = AXIS2_PLACEMENT_3D ( 'NONE', #33, #184, #163 ) ;
#196 = CC_DESIGN_PERSON_AND_ORGANIZATION_ASSIGNMENT ( #122, #252, ( #120 ) ) ;
#197 = CIRCLE ( 'NONE', #145, 13.44999999999999751 ) ;
#198 = PERSON_AND_ORGANIZATION_ROLE ( 'creator' ) ;
#199 = EDGE_CURVE ( 'NONE', #152, #183, #60, .T. ) ;
#200 =( NAMED_UNIT ( * ) PLANE_ANGLE_UNIT ( ) SI_UNIT ( $, .RADIAN. ) );
#201 = DATE_AND_TIME ( #56, #153 ) ;
#202 = VERTEX_POINT ( 'NONE', #130 ) ;
#203 = CARTESIAN_POINT ( 'NONE',  ( -1.702111079750350804E-13, 0.000000000000000000, -57.00000000000000000 ) ) ;
#204 = ORIENTED_EDGE ( 'NONE', *, *, #199, .T. ) ;
#205 = DIRECTION ( 'NONE',  ( -1.000000000000000000, 0.000000000000000000, 2.926707433950024016E-15 ) ) ;
#206 = CARTESIAN_POINT ( 'NONE',  ( -1.702111079750350804E-13, 0.000000000000000000, -57.00000000000000000 ) ) ;
#207 = CC_DESIGN_DATE_AND_TIME_ASSIGNMENT ( #26, #106, ( #187 ) ) ;
#208 = AXIS2_PLACEMENT_3D ( 'NONE', #136, #191, #172 ) ;
#209 = APPROVAL_PERSON_ORGANIZATION ( #155, #22, #142 ) ;
#210 = ADVANCED_FACE ( 'NONE', ( #16, #29 ), #167, .F. ) ;
#211 = DIRECTION ( 'NONE',  ( 1.000000000000000000, 0.000000000000000000, 2.431493749577827094E-16 ) ) ;
#212 = PERSON_AND_ORGANIZATION ( #42, #17 ) ;
#213 = FACE_OUTER_BOUND ( 'NONE', #1, .T. ) ;
#214 = DIRECTION ( 'NONE',  ( 2.926707433950024411E-15, 0.000000000000000000, 1.000000000000000000 ) ) ;
#215 = TOROIDAL_SURFACE ( 'NONE', #236, 57.00000000000000000, 11.84999999999999609 ) ;
#216 = DATE_AND_TIME ( #194, #156 ) ;
#217 = COORDINATED_UNIVERSAL_TIME_OFFSET ( 1, 0, .AHEAD. ) ;
#218 = AXIS2_PLACEMENT_3D ( 'NONE', #52, #51, #241 ) ;
#219 = CC_DESIGN_PERSON_AND_ORGANIZATION_ASSIGNMENT ( #212, #110, ( #120 ) ) ;
#220 = CIRCLE ( 'NONE', #92, 11.84999999999999254 ) ;
#221 = LOCAL_TIME ( 10, 41, 16.00000000000000000, #6 ) ;
#222 = COORDINATED_UNIVERSAL_TIME_OFFSET ( 1, 0, .AHEAD. ) ;
#223 = VERTEX_POINT ( 'NONE', #148 ) ;
#224 = PLANE ( 'NONE',  #166 ) ;
#225 = DIRECTION ( 'NONE',  ( 1.000000000000000000, 0.000000000000000000, 2.431493749577823149E-16 ) ) ;
#226 = DIRECTION ( 'NONE',  ( -2.431493749577822656E-16, 0.000000000000000000, 1.000000000000000000 ) ) ;
#227 = CARTESIAN_POINT ( 'NONE',  ( 0.000000000000000000, -1.647149944853189596E-15, 0.000000000000000000 ) ) ;
#228 = SECURITY_CLASSIFICATION ( '', '', #78 ) ;
#229 = FACE_OUTER_BOUND ( 'NONE', #89, .T. ) ;
#230 = DIRECTION ( 'NONE',  ( 0.000000000000000000, 0.000000000000000000, 1.000000000000000000 ) ) ;
#231 = TOROIDAL_SURFACE ( 'NONE', #160, 57.00000000000000000, 11.84999999999999609 ) ;
#232 = EDGE_CURVE ( 'NONE', #223, #137, #35, .T. ) ;
#233 = DIRECTION ( 'NONE',  ( 0.000000000000000000, 1.000000000000000000, 0.000000000000000000 ) ) ;
#234 = EDGE_CURVE ( 'NONE', #247, #162, #197, .T. ) ;
#235 = ORIENTED_EDGE ( 'NONE', *, *, #250, .F. ) ;
#236 = AXIS2_PLACEMENT_3D ( 'NONE', #80, #233, #14 ) ;
#237 = EDGE_CURVE ( 'NONE', #152, #137, #176, .T. ) ;
#238 = AXIS2_PLACEMENT_3D ( 'NONE', #180, #88, #185 ) ;
#239 = APPROVAL_ROLE ( '' ) ;
#240 = VERTEX_POINT ( 'NONE', #248 ) ;
#241 = DIRECTION ( 'NONE',  ( 2.926707433950024411E-15, 0.000000000000000000, 1.000000000000000000 ) ) ;
#242 = ORIENTED_EDGE ( 'NONE', *, *, #237, .F. ) ;
#243 = CARTESIAN_POINT ( 'NONE',  ( -1.321408406428435904E-13, 0.000000000000000000, -45.15000000000001279 ) ) ;
#244 = ADVANCED_FACE ( 'NONE', ( #31 ), #231, .F. ) ;
#245 = ORIENTED_EDGE ( 'NONE', *, *, #47, .T. ) ;
#246 = DIRECTION ( 'NONE',  ( -1.000000000000000000, 0.000000000000000000, 2.926707433950024016E-15 ) ) ;
#247 = VERTEX_POINT ( 'NONE', #150 ) ;
#248 = CARTESIAN_POINT ( 'NONE',  ( -43.55000000000000426, 0.000000000000000000, -7.200371039527737081E-15 ) ) ;
#249 = DIRECTION ( 'NONE',  ( -2.431493749577822656E-16, 0.000000000000000000, 1.000000000000000000 ) ) ;
#250 = EDGE_CURVE ( 'NONE', #162, #202, #112, .T. ) ;
#251 = DATE_TIME_ROLE ( 'classification_date' ) ;
#252 = PERSON_AND_ORGANIZATION_ROLE ( 'creator' ) ;
#253 = CIRCLE ( 'NONE', #238, 68.84999999999999432 ) ;
ENDSEC;
END-ISO-10303-21;
