ISO-10303-21;
HEADER;
FILE_DESCRIPTION (( 'STEP AP203' ),
    '1' );
FILE_NAME ('3D_R365_104x2_173371150.STEP',
    '2024-07-16T06:35:22',
    ( '' ),
    ( '' ),
    'SwSTEP 2.0',
    'SolidWorks 2024',
    '' );
FILE_SCHEMA (( 'CONFIG_CONTROL_DESIGN' ));
ENDSEC;

DATA;
#1 = CARTESIAN_POINT ( 'NONE',  ( 1.387778780781445676E-14, 2817.965330118411202, 0.000000000000000000 ) ) ;
#2 = VERTEX_POINT ( 'NONE', #187 ) ;
#3 = FACE_OUTER_BOUND ( 'NONE', #200, .T. ) ;
#4 = CIRCLE ( 'NONE', #8, 81.20000000000000284 ) ;
#5 = DIRECTION ( 'NONE',  ( -1.000000000000000000, 0.000000000000000000, 0.000000000000000000 ) ) ;
#6 = EDGE_CURVE ( 'NONE', #130, #319, #133, .T. ) ;
#7 =( NAMED_UNIT ( * ) PLANE_ANGLE_UNIT ( ) SI_UNIT ( $, .RADIAN. ) );
#8 = AXIS2_PLACEMENT_3D ( 'NONE', #119, #22, #219 ) ;
#9 = APPROVAL_DATE_TIME ( #45, #72 ) ;
#10 = EDGE_LOOP ( 'NONE', ( #18, #267, #96, #148 ) ) ;
#11 = CC_DESIGN_DATE_AND_TIME_ASSIGNMENT ( #305, #234, ( #252 ) ) ;
#12 = PERSON_AND_ORGANIZATION ( #86, #222 ) ;
#13 = ORIENTED_EDGE ( 'NONE', *, *, #128, .F. ) ;
#14 = EDGE_CURVE ( 'NONE', #170, #181, #347, .T. ) ;
#15 = COORDINATED_UNIVERSAL_TIME_OFFSET ( 1, 0, .AHEAD. ) ;
#16 = FACE_OUTER_BOUND ( 'NONE', #121, .T. ) ;
#17 = AXIS2_PLACEMENT_3D ( 'NONE', #37, #69, #353 ) ;
#18 = ORIENTED_EDGE ( 'NONE', *, *, #34, .F. ) ;
#19 = CYLINDRICAL_SURFACE ( 'NONE', #381, 49.99999999999998579 ) ;
#20 = ADVANCED_FACE ( 'NONE', ( #64 ), #380, .T. ) ;
#21 = ORIENTED_EDGE ( 'NONE', *, *, #34, .T. ) ;
#22 = DIRECTION ( 'NONE',  ( -0.000000000000000000, 0.000000000000000000, -1.000000000000000000 ) ) ;
#23 = DIRECTION ( 'NONE',  ( -0.000000000000000000, 0.000000000000000000, -1.000000000000000000 ) ) ;
#24 = CIRCLE ( 'NONE', #30, 51.99999999999999289 ) ;
#25 = FACE_OUTER_BOUND ( 'NONE', #108, .T. ) ;
#26 = DIRECTION ( 'NONE',  ( -1.000000000000000000, 4.336808689942018506E-18, 0.000000000000000000 ) ) ;
#27 = CARTESIAN_POINT ( 'NONE',  ( 4.968753025723245404E-15, 23.99999999999999289, 0.000000000000000000 ) ) ;
#28 = DIRECTION ( 'NONE',  ( 1.000000000000000000, 0.000000000000000000, 1.224646799147353454E-16 ) ) ;
#29 = ORIENTED_EDGE ( 'NONE', *, *, #227, .F. ) ;
#30 = AXIS2_PLACEMENT_3D ( 'NONE', #211, #85, #399 ) ;
#31 = CARTESIAN_POINT ( 'NONE',  ( 9.372775987669850673E-34, 0.4345216569712206933, 0.000000000000000000 ) ) ;
#32 = AXIS2_PLACEMENT_3D ( 'NONE', #167, #103, #71 ) ;
#33 = DIRECTION ( 'NONE',  ( -1.224646799147353207E-16, 5.629680630014033300E-34, 1.000000000000000000 ) ) ;
#34 = EDGE_CURVE ( 'NONE', #61, #181, #186, .T. ) ;
#35 = COORDINATED_UNIVERSAL_TIME_OFFSET ( 1, 0, .AHEAD. ) ;
#36 = FACE_OUTER_BOUND ( 'NONE', #10, .T. ) ;
#37 = CARTESIAN_POINT ( 'NONE',  ( 0.000000000000000000, 0.4345216569712204713, 0.000000000000000000 ) ) ;
#38 = DIRECTION ( 'NONE',  ( -1.224646799147353207E-16, 5.629680630014033300E-34, 1.000000000000000000 ) ) ;
#39 = APPROVAL_PERSON_ORGANIZATION ( #226, #72, #324 ) ;
#40 = CALENDAR_DATE ( 2024, 16, 7 ) ;
#41 = CLOSED_SHELL ( 'NONE', ( #164, #403, #51, #88, #370, #20, #137, #302, #140, #276, #268, #285, #97 ) ) ;
#42 = ORIENTED_EDGE ( 'NONE', *, *, #128, .T. ) ;
#43 = VERTEX_POINT ( 'NONE', #284 ) ;
#44 = EDGE_CURVE ( 'NONE', #277, #220, #260, .T. ) ;
#45 = DATE_AND_TIME ( #163, #363 ) ;
#46 = DIRECTION ( 'NONE',  ( 0.000000000000000000, 0.000000000000000000, 1.000000000000000000 ) ) ;
#47 = AXIS2_PLACEMENT_3D ( 'NONE', #407, #90, #278 ) ;
#48 = DIRECTION ( 'NONE',  ( -1.000000000000000000, 0.000000000000000000, 0.000000000000000000 ) ) ;
#49 = ORIENTED_EDGE ( 'NONE', *, *, #14, .F. ) ;
#50 = PERSON_AND_ORGANIZATION ( #86, #222 ) ;
#51 = ADVANCED_FACE ( 'NONE', ( #338 ), #19, .F. ) ;
#52 = DIRECTION ( 'NONE',  ( -1.000000000000000000, 0.000000000000000000, 0.000000000000000000 ) ) ;
#53 = ORIENTED_EDGE ( 'NONE', *, *, #246, .T. ) ;
#54 = FACE_OUTER_BOUND ( 'NONE', #240, .T. ) ;
#55 = SPHERICAL_SURFACE ( 'NONE', #409, 79.20000000000000284 ) ;
#56 = ORIENTED_EDGE ( 'NONE', *, *, #344, .F. ) ;
#57 = AXIS2_PLACEMENT_3D ( 'NONE', #318, #251, #256 ) ;
#58 = CC_DESIGN_SECURITY_CLASSIFICATION ( #252, ( #149 ) ) ;
#59 = CARTESIAN_POINT ( 'NONE',  ( 46.12544378698223824, 11.62726565896532449, 6.008450532432066794E-15 ) ) ;
#60 = CC_DESIGN_PERSON_AND_ORGANIZATION_ASSIGNMENT ( #396, #274, ( #122 ) ) ;
#61 = VERTEX_POINT ( 'NONE', #84 ) ;
#62 = DIRECTION ( 'NONE',  ( 4.596983092540343816E-18, 1.000000000000000000, -0.000000000000000000 ) ) ;
#63 = DIRECTION ( 'NONE',  ( 1.000000000000000000, 0.000000000000000000, 1.224646799147353207E-16 ) ) ;
#64 = FACE_OUTER_BOUND ( 'NONE', #312, .T. ) ;
#65 = AXIS2_PLACEMENT_3D ( 'NONE', #188, #286, #147 ) ;
#66 = EDGE_CURVE ( 'NONE', #135, #43, #202, .T. ) ;
#67 = CARTESIAN_POINT ( 'NONE',  ( 1.387778780781445676E-14, 2817.965330118411202, 0.000000000000000000 ) ) ;
#68 = DIRECTION ( 'NONE',  ( 0.000000000000000000, 0.000000000000000000, 1.000000000000000000 ) ) ;
#69 = DIRECTION ( 'NONE',  ( 4.596983092540343816E-18, 1.000000000000000000, -0.000000000000000000 ) ) ;
#70 = AXIS2_PLACEMENT_3D ( 'NONE', #293, #33, #326 ) ;
#71 = DIRECTION ( 'NONE',  ( -1.000000000000000000, 4.596983092540343046E-18, 0.000000000000000000 ) ) ;
#72 = APPROVAL ( #323, 'UNSPECIFIED' ) ;
#73 = AXIS2_PLACEMENT_3D ( 'NONE', #337, #123, #376 ) ;
#74 = DATE_AND_TIME ( #40, #229 ) ;
#75 = VERTEX_POINT ( 'NONE', #27 ) ;
#76 = PERSON_AND_ORGANIZATION_ROLE ( 'classification_officer' ) ;
#77 = DIRECTION ( 'NONE',  ( 4.596983092540343816E-18, 1.000000000000000000, -0.000000000000000000 ) ) ;
#78 = EDGE_CURVE ( 'NONE', #43, #135, #24, .T. ) ;
#79 = DIRECTION ( 'NONE',  ( -1.000000000000000000, 0.000000000000000000, 0.000000000000000000 ) ) ;
#80 = ORIENTED_EDGE ( 'NONE', *, *, #66, .F. ) ;
#81 = TOROIDAL_SURFACE ( 'NONE', #321, 38.39999999999999147, 11.60000000000000497 ) ;
#82 = FACE_BOUND ( 'NONE', #208, .T. ) ;
#83 = EDGE_LOOP ( 'NONE', ( #205, #365, #53, #393 ) ) ;
#84 = CARTESIAN_POINT ( 'NONE',  ( 50.00000000000000000, 0.4345216569712204713, 6.123233995736766085E-15 ) ) ;
#85 = DIRECTION ( 'NONE',  ( 4.596983092540343816E-18, 1.000000000000000000, -0.000000000000000000 ) ) ;
#86 = PERSON ( 'UNSPECIFIED', 'UNSPECIFIED', 'UNSPECIFIED', ('UNSPECIFIED'), ('UNSPECIFIED'), ('UNSPECIFIED') ) ;
#87 = CARTESIAN_POINT ( 'NONE',  ( 9.372775987669850673E-34, 0.4345216569712206933, 0.000000000000000000 ) ) ;
#88 = ADVANCED_FACE ( 'NONE', ( #25 ), #369, .T. ) ;
#89 = DIRECTION ( 'NONE',  ( 4.596983092540343816E-18, 1.000000000000000000, -0.000000000000000000 ) ) ;
#90 = DIRECTION ( 'NONE',  ( 4.596983092540343816E-18, 1.000000000000000000, -0.000000000000000000 ) ) ;
#91 = AXIS2_PLACEMENT_3D ( 'NONE', #199, #259, #136 ) ;
#92 = ORIENTED_EDGE ( 'NONE', *, *, #357, .F. ) ;
#93 = CARTESIAN_POINT ( 'NONE',  ( 0.000000000000000000, 0.4345216569712204713, 0.000000000000000000 ) ) ;
#94 = ORIENTED_EDGE ( 'NONE', *, *, #339, .F. ) ;
#95 = DIRECTION ( 'NONE',  ( -1.224646799147353207E-16, 5.629680630014033300E-34, 1.000000000000000000 ) ) ;
#96 = ORIENTED_EDGE ( 'NONE', *, *, #44, .T. ) ;
#97 = ADVANCED_FACE ( 'NONE', ( #116 ), #55, .F. ) ;
#98 = LOCAL_TIME ( 8, 35, 22.00000000000000000, #15 ) ;
#99 = DIRECTION ( 'NONE',  ( 1.000000000000000000, -4.596983092540343816E-18, 0.000000000000000000 ) ) ;
#100 = EDGE_LOOP ( 'NONE', ( #80, #398 ) ) ;
#101 = AXIS2_PLACEMENT_3D ( 'NONE', #215, #153, #245 ) ;
#102 = DIRECTION ( 'NONE',  ( 1.000000000000000000, 0.000000000000000000, 0.000000000000000000 ) ) ;
#103 = DIRECTION ( 'NONE',  ( 4.596983092540343816E-18, 1.000000000000000000, -0.000000000000000000 ) ) ;
#104 = DIRECTION ( 'NONE',  ( 4.596983092540343816E-18, 1.000000000000000000, -0.000000000000000000 ) ) ;
#105 = AXIS2_PLACEMENT_3D ( 'NONE', #313, #250, #48 ) ;
#106 = APPROVAL_STATUS ( 'not_yet_approved' ) ;
#107 = EDGE_CURVE ( 'NONE', #236, #2, #169, .T. ) ;
#108 = EDGE_LOOP ( 'NONE', ( #157, #161, #249 ) ) ;
#109 = DATE_TIME_ROLE ( 'creation_date' ) ;
#110 = CIRCLE ( 'NONE', #388, 81.20000000000000284 ) ;
#111 = EDGE_LOOP ( 'NONE', ( #391, #309, #21, #49 ) ) ;
#112 = PERSON_AND_ORGANIZATION ( #86, #222 ) ;
#113 = CARTESIAN_POINT ( 'NONE',  ( 9.236488298952508525E-16, 0.000000000000000000, 0.000000000000000000 ) ) ;
#114 = APPROVAL_DATE_TIME ( #74, #132 ) ;
#115 = ORIENTED_EDGE ( 'NONE', *, *, #6, .F. ) ;
#116 = FACE_OUTER_BOUND ( 'NONE', #172, .T. ) ;
#117 = DIRECTION ( 'NONE',  ( 4.596983092540343816E-18, 1.000000000000000000, -0.000000000000000000 ) ) ;
#118 = AXIS2_PLACEMENT_3D ( 'NONE', #159, #307, #63 ) ;
#119 = CARTESIAN_POINT ( 'NONE',  ( 9.454273289417568899E-15, -55.20000000000000995, 0.000000000000000000 ) ) ;
#120 = FACE_OUTER_BOUND ( 'NONE', #331, .T. ) ;
#121 = EDGE_LOOP ( 'NONE', ( #94, #29, #358, #368 ) ) ;
#122 = PRODUCT_DEFINITION ( 'UNKNOWN', '', #149, #346 ) ;
#123 = DIRECTION ( 'NONE',  ( -4.596983092540343816E-18, -1.000000000000000000, 0.000000000000000000 ) ) ;
#124 = DIRECTION ( 'NONE',  ( -1.000000000000000000, 0.000000000000000000, 0.000000000000000000 ) ) ;
#125 = VECTOR ( 'NONE', #126, 1000.000000000000000 ) ;
#126 = DIRECTION ( 'NONE',  ( 4.596983092540343816E-18, 1.000000000000000000, -0.000000000000000000 ) ) ;
#127 = AXIS2_PLACEMENT_3D ( 'NONE', #287, #410, #254 ) ;
#128 = EDGE_CURVE ( 'NONE', #220, #75, #404, .T. ) ;
#129 = SPHERICAL_SURFACE ( 'NONE', #265, 81.20000000000000284 ) ;
#130 = VERTEX_POINT ( 'NONE', #59 ) ;
#131 = CARTESIAN_POINT ( 'NONE',  ( -38.39999999999999147, 0.4345216569712206378, 0.000000000000000000 ) ) ;
#132 = APPROVAL ( #106, 'UNSPECIFIED' ) ;
#133 = CIRCLE ( 'NONE', #57, 46.12544378698223824 ) ;
#134 = CARTESIAN_POINT ( 'NONE',  ( 4.855482311993591277E-15, 25.99999999999999645, 0.000000000000000000 ) ) ;
#135 = VERTEX_POINT ( 'NONE', #366 ) ;
#136 = DIRECTION ( 'NONE',  ( -1.000000000000000000, 4.170008355713479185E-18, 0.000000000000000000 ) ) ;
#137 = ADVANCED_FACE ( 'NONE', ( #82, #155 ), #209, .T. ) ;
#138 =( LENGTH_UNIT ( ) NAMED_UNIT ( * ) SI_UNIT ( .MILLI., .METRE. ) );
#139 = AXIS2_PLACEMENT_3D ( 'NONE', #408, #343, #373 ) ;
#140 = ADVANCED_FACE ( 'NONE', ( #54 ), #175, .T. ) ;
#141 = APPROVAL_DATE_TIME ( #303, #332 ) ;
#142 = ORIENTED_EDGE ( 'NONE', *, *, #246, .F. ) ;
#143 = APPROVAL_ROLE ( '' ) ;
#144 = ORIENTED_EDGE ( 'NONE', *, *, #206, .F. ) ;
#145 = CIRCLE ( 'NONE', #390, 11.60000000000000675 ) ;
#146 = ORIENTED_EDGE ( 'NONE', *, *, #389, .F. ) ;
#147 = DIRECTION ( 'NONE',  ( -1.000000000000000000, 4.596983092540343046E-18, 0.000000000000000000 ) ) ;
#148 = ORIENTED_EDGE ( 'NONE', *, *, #315, .F. ) ;
#149 = PRODUCT_DEFINITION_FORMATION_WITH_SPECIFIED_SOURCE ( 'ANY', '', #299, .NOT_KNOWN. ) ;
#150 = CARTESIAN_POINT ( 'NONE',  ( 9.753910503458373185E-15, 9.981273893966246646, 0.000000000000000000 ) ) ;
#151 = DIRECTION ( 'NONE',  ( 0.000000000000000000, 0.000000000000000000, 1.000000000000000000 ) ) ;
#152 = CC_DESIGN_PERSON_AND_ORGANIZATION_ASSIGNMENT ( #193, #322, ( #299 ) ) ;
#153 = DIRECTION ( 'NONE',  ( 0.000000000000000000, 0.000000000000000000, 1.000000000000000000 ) ) ;
#154 = CARTESIAN_POINT ( 'NONE',  ( -49.99999999999997158, 2817.965330118411202, 0.000000000000000000 ) ) ;
#155 = FACE_OUTER_BOUND ( 'NONE', #100, .T. ) ;
#156 = CYLINDRICAL_SURFACE ( 'NONE', #207, 49.99999999999998579 ) ;
#157 = ORIENTED_EDGE ( 'NONE', *, *, #389, .T. ) ;
#158 = AXIS2_PLACEMENT_3D ( 'NONE', #93, #406, #182 ) ;
#159 = CARTESIAN_POINT ( 'NONE',  ( 38.39999999999999147, 0.4345216569712203047, 4.702643708725835369E-15 ) ) ;
#160 = CIRCLE ( 'NONE', #70, 79.20000000000000284 ) ;
#161 = ORIENTED_EDGE ( 'NONE', *, *, #239, .T. ) ;
#162 = APPLICATION_PROTOCOL_DEFINITION ( 'international standard', 'config_control_design', 1994, #214 ) ;
#163 = CALENDAR_DATE ( 2024, 16, 7 ) ;
#164 = ADVANCED_FACE ( 'NONE', ( #120 ), #253, .F. ) ;
#165 = MECHANICAL_CONTEXT ( 'NONE', #184, 'mechanical' ) ;
#166 =( NAMED_UNIT ( * ) SI_UNIT ( $, .STERADIAN. ) SOLID_ANGLE_UNIT ( ) );
#167 = CARTESIAN_POINT ( 'NONE',  ( 0.000000000000000000, 0.4345216569712204713, 0.000000000000000000 ) ) ;
#168 = EDGE_CURVE ( 'NONE', #319, #328, #4, .T. ) ;
#169 = CIRCLE ( 'NONE', #139, 51.99999999999999289 ) ;
#170 = VERTEX_POINT ( 'NONE', #314 ) ;
#171 = DATE_AND_TIME ( #392, #98 ) ;
#172 = EDGE_LOOP ( 'NONE', ( #92, #210, #42 ) ) ;
#173 = CARTESIAN_POINT ( 'NONE',  ( 44.98934911242609758, 9.981273893966246646, 5.816420117181153796E-15 ) ) ;
#174 = SECURITY_CLASSIFICATION_LEVEL ( 'unclassified' ) ;
#175 = TOROIDAL_SURFACE ( 'NONE', #158, 38.39999999999999147, 13.60000000000000497 ) ;
#176 = VERTEX_POINT ( 'NONE', #178 ) ;
#177 = VECTOR ( 'NONE', #385, 1000.000000000000000 ) ;
#178 = CARTESIAN_POINT ( 'NONE',  ( 49.99999999999998579, -2.298491546270171292E-16, 6.123233995736764507E-15 ) ) ;
#179 = CC_DESIGN_PERSON_AND_ORGANIZATION_ASSIGNMENT ( #300, #76, ( #252 ) ) ;
#180 = CARTESIAN_POINT ( 'NONE',  ( 0.000000000000000000, 0.4345216569712204713, 0.000000000000000000 ) ) ;
#181 = VERTEX_POINT ( 'NONE', #283 ) ;
#182 = DIRECTION ( 'NONE',  ( -1.000000000000000000, 4.596983092540343046E-18, 0.000000000000000000 ) ) ;
#183 = EDGE_CURVE ( 'NONE', #220, #277, #238, .T. ) ;
#184 = APPLICATION_CONTEXT ( 'configuration controlled 3d designs of mechanical parts and assemblies' ) ;
#185 = DIRECTION ( 'NONE',  ( -1.000000000000000000, 0.000000000000000000, 0.000000000000000000 ) ) ;
#186 = CIRCLE ( 'NONE', #247, 49.99999999999999289 ) ;
#187 = CARTESIAN_POINT ( 'NONE',  ( -51.99999999999999289, 0.4345216569712209154, 0.000000000000000000 ) ) ;
#188 = CARTESIAN_POINT ( 'NONE',  ( 9.236488298952508525E-16, 0.000000000000000000, 0.000000000000000000 ) ) ;
#189 = ORIENTED_EDGE ( 'NONE', *, *, #357, .T. ) ;
#190 = LINE ( 'NONE', #221, #125 ) ;
#191 = CARTESIAN_POINT ( 'NONE',  ( -44.98934911242608337, 9.981273893966246646, 0.000000000000000000 ) ) ;
#192 = CIRCLE ( 'NONE', #225, 49.99999999999998579 ) ;
#193 = PERSON_AND_ORGANIZATION ( #86, #222 ) ;
#194 = CARTESIAN_POINT ( 'NONE',  ( 9.770991735419894018E-16, 11.62726565896532449, 0.000000000000000000 ) ) ;
#195 = EDGE_CURVE ( 'NONE', #170, #176, #342, .T. ) ;
#196 = LOCAL_TIME ( 8, 35, 22.00000000000000000, #329 ) ;
#197 = DIRECTION ( 'NONE',  ( -0.000000000000000000, 0.000000000000000000, -1.000000000000000000 ) ) ;
#198 = TOROIDAL_SURFACE ( 'NONE', #17, 38.39999999999999147, 11.60000000000000497 ) ;
#199 = CARTESIAN_POINT ( 'NONE',  ( 9.256463186056907516E-16, 0.4345216569712206933, 0.000000000000000000 ) ) ;
#200 = EDGE_LOOP ( 'NONE', ( #216, #336, #146, #203 ) ) ;
#201 = PERSON_AND_ORGANIZATION_ROLE ( 'creator' ) ;
#202 = CIRCLE ( 'NONE', #65, 51.99999999999999289 ) ;
#203 = ORIENTED_EDGE ( 'NONE', *, *, #351, .F. ) ;
#204 = SHAPE_DEFINITION_REPRESENTATION ( #232, #334 ) ;
#205 = ORIENTED_EDGE ( 'NONE', *, *, #258, .F. ) ;
#206 = EDGE_CURVE ( 'NONE', #236, #130, #296, .T. ) ;
#207 = AXIS2_PLACEMENT_3D ( 'NONE', #1, #364, #79 ) ;
#208 = EDGE_LOOP ( 'NONE', ( #402, #384 ) ) ;
#209 = PLANE ( 'NONE',  #73 ) ;
#210 = ORIENTED_EDGE ( 'NONE', *, *, #183, .F. ) ;
#211 = CARTESIAN_POINT ( 'NONE',  ( 9.236488298952508525E-16, 0.000000000000000000, 0.000000000000000000 ) ) ;
#212 = DIRECTION ( 'NONE',  ( -1.000000000000000000, 0.000000000000000000, 0.000000000000000000 ) ) ;
#213 = DIRECTION ( 'NONE',  ( 4.596983092540343816E-18, 1.000000000000000000, -0.000000000000000000 ) ) ;
#214 = APPLICATION_CONTEXT ( 'configuration controlled 3d designs of mechanical parts and assemblies' ) ;
#215 = CARTESIAN_POINT ( 'NONE',  ( 9.454273289417568899E-15, -55.20000000000000995, 0.000000000000000000 ) ) ;
#216 = ORIENTED_EDGE ( 'NONE', *, *, #383, .T. ) ;
#217 = AXIS2_PLACEMENT_3D ( 'NONE', #131, #230, #382 ) ;
#218 = UNCERTAINTY_MEASURE_WITH_UNIT (LENGTH_MEASURE( 1.000000000000000082E-05 ), #138, 'distance_accuracy_value', 'NONE');
#219 = DIRECTION ( 'NONE',  ( -1.000000000000000000, 0.000000000000000000, 0.000000000000000000 ) ) ;
#220 = VERTEX_POINT ( 'NONE', #191 ) ;
#221 = CARTESIAN_POINT ( 'NONE',  ( -51.99999999999997868, 2817.965330118411202, 0.000000000000000000 ) ) ;
#222 = ORGANIZATION ( 'UNSPECIFIED', 'UNSPECIFIED', '' ) ;
#223 = ORIENTED_EDGE ( 'NONE', *, *, #14, .T. ) ;
#224 = ORIENTED_EDGE ( 'NONE', *, *, #44, .F. ) ;
#225 = AXIS2_PLACEMENT_3D ( 'NONE', #275, #117, #248 ) ;
#226 = PERSON_AND_ORGANIZATION ( #86, #222 ) ;
#227 = EDGE_CURVE ( 'NONE', #181, #61, #348, .T. ) ;
#228 = APPLICATION_PROTOCOL_DEFINITION ( 'international standard', 'config_control_design', 1994, #184 ) ;
#229 = LOCAL_TIME ( 8, 35, 22.00000000000000000, #360 ) ;
#230 = DIRECTION ( 'NONE',  ( -0.000000000000000000, 0.000000000000000000, -1.000000000000000000 ) ) ;
#231 = VECTOR ( 'NONE', #77, 1000.000000000000000 ) ;
#232 = PRODUCT_DEFINITION_SHAPE ( 'NONE', 'NONE',  #122 ) ;
#233 = CIRCLE ( 'NONE', #91, 51.99999999999999289 ) ;
#234 = DATE_TIME_ROLE ( 'classification_date' ) ;
#235 = PERSON_AND_ORGANIZATION_ROLE ( 'design_supplier' ) ;
#236 = VERTEX_POINT ( 'NONE', #241 ) ;
#237 = CALENDAR_DATE ( 2024, 16, 7 ) ;
#238 = CIRCLE ( 'NONE', #289, 44.98934911242609047 ) ;
#239 = EDGE_CURVE ( 'NONE', #130, #328, #110, .T. ) ;
#240 = EDGE_LOOP ( 'NONE', ( #144, #290, #263, #115 ) ) ;
#241 = CARTESIAN_POINT ( 'NONE',  ( 51.99999999999999289, 0.4345216569712204713, 6.368163355566235593E-15 ) ) ;
#242 = ORIENTED_EDGE ( 'NONE', *, *, #66, .T. ) ;
#243 = CARTESIAN_POINT ( 'NONE',  ( 9.454273289417568899E-15, -55.20000000000000995, 0.000000000000000000 ) ) ;
#244 = ORIENTED_EDGE ( 'NONE', *, *, #168, .T. ) ;
#245 = DIRECTION ( 'NONE',  ( -1.000000000000000000, 0.000000000000000000, 0.000000000000000000 ) ) ;
#246 = EDGE_CURVE ( 'NONE', #135, #2, #190, .T. ) ;
#247 = AXIS2_PLACEMENT_3D ( 'NONE', #87, #213, #26 ) ;
#248 = DIRECTION ( 'NONE',  ( 1.000000000000000000, -4.596983092540343816E-18, 0.000000000000000000 ) ) ;
#249 = ORIENTED_EDGE ( 'NONE', *, *, #168, .F. ) ;
#250 = DIRECTION ( 'NONE',  ( 0.000000000000000000, 0.000000000000000000, 1.000000000000000000 ) ) ;
#251 = DIRECTION ( 'NONE',  ( 4.596983092540343816E-18, 1.000000000000000000, -0.000000000000000000 ) ) ;
#252 = SECURITY_CLASSIFICATION ( '', '', #174 ) ;
#253 = SPHERICAL_SURFACE ( 'NONE', #105, 79.20000000000000284 ) ;
#254 = DIRECTION ( 'NONE',  ( -1.000000000000000000, 0.000000000000000000, 0.000000000000000000 ) ) ;
#255 = CC_DESIGN_DATE_AND_TIME_ASSIGNMENT ( #171, #109, ( #122 ) ) ;
#256 = DIRECTION ( 'NONE',  ( -1.000000000000000000, 0.000000000000000000, 0.000000000000000000 ) ) ;
#257 = DIRECTION ( 'NONE',  ( 4.596983092540343816E-18, 1.000000000000000000, -0.000000000000000000 ) ) ;
#258 = EDGE_CURVE ( 'NONE', #43, #236, #397, .T. ) ;
#259 = DIRECTION ( 'NONE',  ( 4.596983092540343816E-18, 1.000000000000000000, -0.000000000000000000 ) ) ;
#260 = CIRCLE ( 'NONE', #47, 44.98934911242609047 ) ;
#261 = DIRECTION ( 'NONE',  ( -1.000000000000000000, 0.000000000000000000, 0.000000000000000000 ) ) ;
#262 = PRODUCT_RELATED_PRODUCT_CATEGORY ( 'detail', '', ( #299 ) ) ;
#263 = ORIENTED_EDGE ( 'NONE', *, *, #351, .T. ) ;
#264 = CARTESIAN_POINT ( 'NONE',  ( 50.00000000000000000, 2817.965330118411202, 6.123233995736764507E-15 ) ) ;
#265 = AXIS2_PLACEMENT_3D ( 'NONE', #330, #46, #52 ) ;
#266 = CARTESIAN_POINT ( 'NONE',  ( -38.39999999999999147, 0.4345216569712206378, 0.000000000000000000 ) ) ;
#267 = ORIENTED_EDGE ( 'NONE', *, *, #339, .T. ) ;
#268 = ADVANCED_FACE ( 'NONE', ( #308 ), #156, .F. ) ;
#269 = APPROVAL_STATUS ( 'not_yet_approved' ) ;
#270 = ORIENTED_EDGE ( 'NONE', *, *, #6, .T. ) ;
#271 = PERSON_AND_ORGANIZATION ( #86, #222 ) ;
#272 = TOROIDAL_SURFACE ( 'NONE', #32, 38.39999999999999147, 13.60000000000000497 ) ;
#273 = DIRECTION ( 'NONE',  ( 4.596983092540343816E-18, 1.000000000000000000, -0.000000000000000000 ) ) ;
#274 = PERSON_AND_ORGANIZATION_ROLE ( 'creator' ) ;
#275 = CARTESIAN_POINT ( 'NONE',  ( 9.236488298952508525E-16, 0.000000000000000000, 0.000000000000000000 ) ) ;
#276 = ADVANCED_FACE ( 'NONE', ( #345 ), #129, .T. ) ;
#277 = VERTEX_POINT ( 'NONE', #173 ) ;
#278 = DIRECTION ( 'NONE',  ( -1.000000000000000000, 0.000000000000000000, 0.000000000000000000 ) ) ;
#279 = APPROVAL_ROLE ( '' ) ;
#280 = CC_DESIGN_APPROVAL ( #72, ( #122 ) ) ;
#281 = ORIENTED_EDGE ( 'NONE', *, *, #258, .T. ) ;
#282 = DIRECTION ( 'NONE',  ( -1.000000000000000000, 0.000000000000000000, 0.000000000000000000 ) ) ;
#283 = CARTESIAN_POINT ( 'NONE',  ( -49.99999999999999289, 0.4345216569712209154, 0.000000000000000000 ) ) ;
#284 = CARTESIAN_POINT ( 'NONE',  ( 51.99999999999999289, -2.390431208120978045E-16, 6.368163355566235593E-15 ) ) ;
#285 = ADVANCED_FACE ( 'NONE', ( #16 ), #81, .F. ) ;
#286 = DIRECTION ( 'NONE',  ( 4.596983092540343816E-18, 1.000000000000000000, -0.000000000000000000 ) ) ;
#287 = CARTESIAN_POINT ( 'NONE',  ( 1.387778780781445676E-14, 2817.965330118411202, 0.000000000000000000 ) ) ;
#288 = CC_DESIGN_PERSON_AND_ORGANIZATION_ASSIGNMENT ( #112, #235, ( #149 ) ) ;
#289 = AXIS2_PLACEMENT_3D ( 'NONE', #150, #89, #282 ) ;
#290 = ORIENTED_EDGE ( 'NONE', *, *, #107, .T. ) ;
#291 = CARTESIAN_POINT ( 'NONE',  ( 52.00000000000000711, 2817.965330118411202, 6.368163355566235593E-15 ) ) ;
#292 = EDGE_CURVE ( 'NONE', #176, #170, #192, .T. ) ;
#293 = CARTESIAN_POINT ( 'NONE',  ( 9.454273289417568899E-15, -55.20000000000000995, 0.000000000000000000 ) ) ;
#294 = APPROVAL_PERSON_ORGANIZATION ( #12, #332, #279 ) ;
#295 = CARTESIAN_POINT ( 'NONE',  ( 0.000000000000000000, 0.000000000000000000, 0.000000000000000000 ) ) ;
#296 = CIRCLE ( 'NONE', #118, 13.60000000000000142 ) ;
#297 = ORIENTED_EDGE ( 'NONE', *, *, #239, .F. ) ;
#298 = CARTESIAN_POINT ( 'NONE',  ( 38.39999999999999147, 0.4345216569712203047, 4.702643708725835369E-15 ) ) ;
#299 = PRODUCT ( '3D_R365_104x2_173371150', '3D_R365_104x2_173371150', '', ( #165 ) ) ;
#300 = PERSON_AND_ORGANIZATION ( #86, #222 ) ;
#301 = EDGE_LOOP ( 'NONE', ( #297, #270, #244 ) ) ;
#302 = ADVANCED_FACE ( 'NONE', ( #378 ), #374, .T. ) ;
#303 = DATE_AND_TIME ( #395, #196 ) ;
#304 = ORIENTED_EDGE ( 'NONE', *, *, #195, .F. ) ;
#305 = DATE_AND_TIME ( #237, #306 ) ;
#306 = LOCAL_TIME ( 8, 35, 22.00000000000000000, #362 ) ;
#307 = DIRECTION ( 'NONE',  ( -1.224646799147353207E-16, 5.629680630014033300E-34, 1.000000000000000000 ) ) ;
#308 = FACE_OUTER_BOUND ( 'NONE', #377, .T. ) ;
#309 = ORIENTED_EDGE ( 'NONE', *, *, #344, .T. ) ;
#310 = CARTESIAN_POINT ( 'NONE',  ( 1.387778780781445676E-14, 2817.965330118411202, 0.000000000000000000 ) ) ;
#311 = DIRECTION ( 'NONE',  ( 4.596983092540343816E-18, 1.000000000000000000, -0.000000000000000000 ) ) ;
#312 = EDGE_LOOP ( 'NONE', ( #242, #281, #405, #142 ) ) ;
#313 = CARTESIAN_POINT ( 'NONE',  ( 9.454273289417568899E-15, -55.20000000000000995, 0.000000000000000000 ) ) ;
#314 = CARTESIAN_POINT ( 'NONE',  ( -49.99999999999998579, 2.298491546270171292E-16, 0.000000000000000000 ) ) ;
#315 = EDGE_CURVE ( 'NONE', #181, #220, #355, .T. ) ;
#316 = DIRECTION ( 'NONE',  ( -1.000000000000000000, 0.000000000000000000, 0.000000000000000000 ) ) ;
#317 = DIRECTION ( 'NONE',  ( 4.596983092540343816E-18, 1.000000000000000000, -0.000000000000000000 ) ) ;
#318 = CARTESIAN_POINT ( 'NONE',  ( 9.770991735419894018E-16, 11.62726565896532449, 0.000000000000000000 ) ) ;
#319 = VERTEX_POINT ( 'NONE', #349 ) ;
#320 = DIRECTION ( 'NONE',  ( -1.000000000000000000, 4.336808689942018506E-18, 0.000000000000000000 ) ) ;
#321 = AXIS2_PLACEMENT_3D ( 'NONE', #180, #311, #401 ) ;
#322 = PERSON_AND_ORGANIZATION_ROLE ( 'design_owner' ) ;
#323 = APPROVAL_STATUS ( 'not_yet_approved' ) ;
#324 = APPROVAL_ROLE ( '' ) ;
#325 = CIRCLE ( 'NONE', #375, 46.12544378698223824 ) ;
#326 = DIRECTION ( 'NONE',  ( 1.000000000000000000, 0.000000000000000000, 1.224646799147353207E-16 ) ) ;
#327 = CC_DESIGN_APPROVAL ( #132, ( #252 ) ) ;
#328 = VERTEX_POINT ( 'NONE', #134 ) ;
#329 = COORDINATED_UNIVERSAL_TIME_OFFSET ( 1, 0, .AHEAD. ) ;
#330 = CARTESIAN_POINT ( 'NONE',  ( 9.454273289417568899E-15, -55.20000000000000995, 0.000000000000000000 ) ) ;
#331 = EDGE_LOOP ( 'NONE', ( #224, #189, #13 ) ) ;
#332 = APPROVAL ( #269, 'UNSPECIFIED' ) ;
#333 = AXIS2_PLACEMENT_3D ( 'NONE', #31, #62, #320 ) ;
#334 = ADVANCED_BREP_SHAPE_REPRESENTATION ( '3D_R365_104x2_173371150', ( #350, #400 ), #386 ) ;
#335 = CIRCLE ( 'NONE', #411, 13.60000000000000142 ) ;
#336 = ORIENTED_EDGE ( 'NONE', *, *, #206, .T. ) ;
#337 = CARTESIAN_POINT ( 'NONE',  ( -5.494385923806462123E-34, -1.195215604060489022E-16, 0.000000000000000000 ) ) ;
#338 = FACE_OUTER_BOUND ( 'NONE', #111, .T. ) ;
#339 = EDGE_CURVE ( 'NONE', #61, #277, #145, .T. ) ;
#340 = CARTESIAN_POINT ( 'NONE',  ( 9.454273289417568899E-15, -55.20000000000000995, 0.000000000000000000 ) ) ;
#341 = ORIENTED_EDGE ( 'NONE', *, *, #227, .T. ) ;
#342 = CIRCLE ( 'NONE', #394, 49.99999999999998579 ) ;
#343 = DIRECTION ( 'NONE',  ( 4.596983092540343816E-18, 1.000000000000000000, -0.000000000000000000 ) ) ;
#344 = EDGE_CURVE ( 'NONE', #176, #61, #356, .T. ) ;
#345 = FACE_OUTER_BOUND ( 'NONE', #301, .T. ) ;
#346 = DESIGN_CONTEXT ( 'detailed design', #214, 'design' ) ;
#347 = LINE ( 'NONE', #154, #367 ) ;
#348 = CIRCLE ( 'NONE', #333, 49.99999999999999289 ) ;
#349 = CARTESIAN_POINT ( 'NONE',  ( -46.12544378698223824, 11.62726565896532449, 0.000000000000000000 ) ) ;
#350 = MANIFOLD_SOLID_BREP ( 'Wandung1', #41 ) ;
#351 = EDGE_CURVE ( 'NONE', #2, #319, #335, .T. ) ;
#352 = APPROVAL_PERSON_ORGANIZATION ( #50, #132, #143 ) ;
#353 = DIRECTION ( 'NONE',  ( -1.000000000000000000, 4.596983092540343046E-18, 0.000000000000000000 ) ) ;
#354 = AXIS2_PLACEMENT_3D ( 'NONE', #340, #23, #124 ) ;
#355 = CIRCLE ( 'NONE', #217, 11.60000000000000675 ) ;
#356 = LINE ( 'NONE', #264, #177 ) ;
#357 = EDGE_CURVE ( 'NONE', #277, #75, #160, .T. ) ;
#358 = ORIENTED_EDGE ( 'NONE', *, *, #315, .T. ) ;
#359 = AXIS2_PLACEMENT_3D ( 'NONE', #67, #372, #316 ) ;
#360 = COORDINATED_UNIVERSAL_TIME_OFFSET ( 1, 0, .AHEAD. ) ;
#361 = CC_DESIGN_PERSON_AND_ORGANIZATION_ASSIGNMENT ( #271, #201, ( #149 ) ) ;
#362 = COORDINATED_UNIVERSAL_TIME_OFFSET ( 1, 0, .AHEAD. ) ;
#363 = LOCAL_TIME ( 8, 35, 22.00000000000000000, #35 ) ;
#364 = DIRECTION ( 'NONE',  ( 4.596983092540343816E-18, 1.000000000000000000, -0.000000000000000000 ) ) ;
#365 = ORIENTED_EDGE ( 'NONE', *, *, #78, .T. ) ;
#366 = CARTESIAN_POINT ( 'NONE',  ( -51.99999999999999289, 2.390431208120978045E-16, 0.000000000000000000 ) ) ;
#367 = VECTOR ( 'NONE', #257, 1000.000000000000000 ) ;
#368 = ORIENTED_EDGE ( 'NONE', *, *, #183, .T. ) ;
#369 = SPHERICAL_SURFACE ( 'NONE', #101, 81.20000000000000284 ) ;
#370 = ADVANCED_FACE ( 'NONE', ( #3 ), #272, .T. ) ;
#371 = CARTESIAN_POINT ( 'NONE',  ( 9.454273289417568899E-15, -55.20000000000000995, 0.000000000000000000 ) ) ;
#372 = DIRECTION ( 'NONE',  ( 4.596983092540343816E-18, 1.000000000000000000, -0.000000000000000000 ) ) ;
#373 = DIRECTION ( 'NONE',  ( -1.000000000000000000, 4.170008355713479185E-18, 0.000000000000000000 ) ) ;
#374 = CYLINDRICAL_SURFACE ( 'NONE', #127, 51.99999999999999289 ) ;
#375 = AXIS2_PLACEMENT_3D ( 'NONE', #194, #104, #261 ) ;
#376 = DIRECTION ( 'NONE',  ( 1.000000000000000000, -4.596983092540343816E-18, 0.000000000000000000 ) ) ;
#377 = EDGE_LOOP ( 'NONE', ( #56, #304, #223, #341 ) ) ;
#378 = FACE_OUTER_BOUND ( 'NONE', #83, .T. ) ;
#379 = CC_DESIGN_APPROVAL ( #332, ( #149 ) ) ;
#380 = CYLINDRICAL_SURFACE ( 'NONE', #359, 51.99999999999999289 ) ;
#381 = AXIS2_PLACEMENT_3D ( 'NONE', #310, #317, #212 ) ;
#382 = DIRECTION ( 'NONE',  ( -1.000000000000000000, 0.000000000000000000, 0.000000000000000000 ) ) ;
#383 = EDGE_CURVE ( 'NONE', #2, #236, #233, .T. ) ;
#384 = ORIENTED_EDGE ( 'NONE', *, *, #292, .T. ) ;
#385 = DIRECTION ( 'NONE',  ( 4.596983092540343816E-18, 1.000000000000000000, -0.000000000000000000 ) ) ;
#386 =( GEOMETRIC_REPRESENTATION_CONTEXT ( 3 ) GLOBAL_UNCERTAINTY_ASSIGNED_CONTEXT ( ( #218 ) ) GLOBAL_UNIT_ASSIGNED_CONTEXT ( ( #138, #7, #166 ) ) REPRESENTATION_CONTEXT ( 'NONE', 'WORKASPACE' ) );
#387 = DIRECTION ( 'NONE',  ( 1.000000000000000000, 0.000000000000000000, 1.224646799147352468E-16 ) ) ;
#388 = AXIS2_PLACEMENT_3D ( 'NONE', #243, #95, #28 ) ;
#389 = EDGE_CURVE ( 'NONE', #319, #130, #325, .T. ) ;
#390 = AXIS2_PLACEMENT_3D ( 'NONE', #298, #38, #387 ) ;
#391 = ORIENTED_EDGE ( 'NONE', *, *, #292, .F. ) ;
#392 = CALENDAR_DATE ( 2024, 16, 7 ) ;
#393 = ORIENTED_EDGE ( 'NONE', *, *, #107, .F. ) ;
#394 = AXIS2_PLACEMENT_3D ( 'NONE', #113, #273, #99 ) ;
#395 = CALENDAR_DATE ( 2024, 16, 7 ) ;
#396 = PERSON_AND_ORGANIZATION ( #86, #222 ) ;
#397 = LINE ( 'NONE', #291, #231 ) ;
#398 = ORIENTED_EDGE ( 'NONE', *, *, #78, .F. ) ;
#399 = DIRECTION ( 'NONE',  ( -1.000000000000000000, 4.596983092540343046E-18, 0.000000000000000000 ) ) ;
#400 = AXIS2_PLACEMENT_3D ( 'NONE', #295, #68, #102 ) ;
#401 = DIRECTION ( 'NONE',  ( -1.000000000000000000, 4.596983092540343046E-18, 0.000000000000000000 ) ) ;
#402 = ORIENTED_EDGE ( 'NONE', *, *, #195, .T. ) ;
#403 = ADVANCED_FACE ( 'NONE', ( #36 ), #198, .F. ) ;
#404 = CIRCLE ( 'NONE', #354, 79.20000000000000284 ) ;
#405 = ORIENTED_EDGE ( 'NONE', *, *, #383, .F. ) ;
#406 = DIRECTION ( 'NONE',  ( 4.596983092540343816E-18, 1.000000000000000000, -0.000000000000000000 ) ) ;
#407 = CARTESIAN_POINT ( 'NONE',  ( 9.753910503458373185E-15, 9.981273893966246646, 0.000000000000000000 ) ) ;
#408 = CARTESIAN_POINT ( 'NONE',  ( 9.256463186056907516E-16, 0.4345216569712206933, 0.000000000000000000 ) ) ;
#409 = AXIS2_PLACEMENT_3D ( 'NONE', #371, #151, #185 ) ;
#410 = DIRECTION ( 'NONE',  ( 4.596983092540343816E-18, 1.000000000000000000, -0.000000000000000000 ) ) ;
#411 = AXIS2_PLACEMENT_3D ( 'NONE', #266, #197, #5 ) ;
ENDSEC;
END-ISO-10303-21;
