ISO-10303-21;
HEADER;
FILE_DESCRIPTION (( 'STEP AP203' ),
    '1' );
FILE_NAME ('19-0408-02_outokumpu.step',
    '2015-08-11T09:37:22',
    ( '' ),
    ( '' ),
    'SwSTEP 2.0',
    'SolidWorks 2008',
    '' );
FILE_SCHEMA (( 'CONFIG_CONTROL_DESIGN' ));
ENDSEC;

DATA;
#1 = ORIENTED_EDGE ( 'NONE', *, *, #16, .F. ) ;
#2 = DIRECTION ( 'NONE',  ( 1.000000000000000000, 0.0000000000000000000, 0.0000000000000000000 ) ) ;
#3 = VERTEX_POINT ( 'NONE', #132 ) ;
#4 = EDGE_CURVE ( 'NONE', #61, #14, #134, .T. ) ;
#5 = EDGE_CURVE ( 'NONE', #3, #46, #152, .T. ) ;
#6 = ORIENTED_EDGE ( 'NONE', *, *, #70, .T. ) ;
#7 = VERTEX_POINT ( 'NONE', #129 ) ;
#8 = EDGE_CURVE ( 'NONE', #62, #21, #114, .T. ) ;
#9 = ORIENTED_EDGE ( 'NONE', *, *, #10, .F. ) ;
#10 = EDGE_CURVE ( 'NONE', #46, #71, #154, .T. ) ;
#11 = EDGE_LOOP ( 'NONE', ( #72, #73, #83, #84 ) ) ;
#12 = ORIENTED_EDGE ( 'NONE', *, *, #5, .F. ) ;
#13 = ADVANCED_FACE ( 'NONE', ( #155 ), #150, .F. ) ;
#14 = VERTEX_POINT ( 'NONE', #121 ) ;
#15 = ORIENTED_EDGE ( 'NONE', *, *, #8, .F. ) ;
#16 = EDGE_CURVE ( 'NONE', #7, #14, #143, .T. ) ;
#17 = ORIENTED_EDGE ( 'NONE', *, *, #80, .F. ) ;
#18 = EDGE_CURVE ( 'NONE', #22, #25, #144, .T. ) ;
#19 = ORIENTED_EDGE ( 'NONE', *, *, #58, .F. ) ;
#20 = ORIENTED_EDGE ( 'NONE', *, *, #45, .F. ) ;
#21 = VERTEX_POINT ( 'NONE', #171 ) ;
#22 = VERTEX_POINT ( 'NONE', #162 ) ;
#23 = EDGE_LOOP ( 'NONE', ( #74, #63, #19, #20, #15 ) ) ;
#24 = EDGE_LOOP ( 'NONE', ( #56, #53, #1, #17 ) ) ;
#25 = VERTEX_POINT ( 'NONE', #168 ) ;
#26 = EDGE_CURVE ( 'NONE', #30, #40, #167, .T. ) ;
#27 = ORIENTED_EDGE ( 'NONE', *, *, #28, .F. ) ;
#28 = EDGE_CURVE ( 'NONE', #34, #30, #174, .T. ) ;
#29 = ADVANCED_FACE ( 'NONE', ( #205 ), #194, .F. ) ;
#30 = VERTEX_POINT ( 'NONE', #178 ) ;
#31 = ORIENTED_EDGE ( 'NONE', *, *, #26, .F. ) ;
#32 = ORIENTED_EDGE ( 'NONE', *, *, #47, .T. ) ;
#33 = EDGE_CURVE ( 'NONE', #34, #35, #179, .T. ) ;
#34 = VERTEX_POINT ( 'NONE', #181 ) ;
#35 = VERTEX_POINT ( 'NONE', #180 ) ;
#36 = ORIENTED_EDGE ( 'NONE', *, *, #42, .T. ) ;
#37 = MANIFOLD_SOLID_BREP ( 'NONE', #133 ) ;
#38 = EDGE_LOOP ( 'NONE', ( #32, #6, #9, #12, #77 ) ) ;
#39 = EDGE_LOOP ( 'NONE', ( #41, #36, #31, #27 ) ) ;
#40 = VERTEX_POINT ( 'NONE', #198 ) ;
#41 = ORIENTED_EDGE ( 'NONE', *, *, #33, .T. ) ;
#42 = EDGE_CURVE ( 'NONE', #35, #40, #201, .T. ) ;
#43 = ADVANCED_FACE ( 'NONE', ( #182 ), #189, .F. ) ;
#44 = EDGE_LOOP ( 'NONE', ( #128, #135 ) ) ;
#45 = EDGE_CURVE ( 'NONE', #21, #3, #217, .T. ) ;
#46 = VERTEX_POINT ( 'NONE', #212 ) ;
#47 = EDGE_CURVE ( 'NONE', #25, #79, #218, .T. ) ;
#48 = APPLICATION_PROTOCOL_DEFINITION ( 'international standard', 'config_control_design', 1994, #49 ) ;
#49 = APPLICATION_CONTEXT ( 'configuration controlled 3d designs of mechanical parts and assemblies' ) ;
#50 = MECHANICAL_CONTEXT ( 'NONE', #49, 'mechanical' ) ;
#51 = VERTEX_POINT ( 'NONE', #209 ) ;
#52 = EDGE_CURVE ( 'NONE', #51, #61, #197, .T. ) ;
#53 = ORIENTED_EDGE ( 'NONE', *, *, #4, .T. ) ;
#54 = ADVANCED_FACE ( 'NONE', ( #404 ), #401, .T. ) ;
#55 = DATE_AND_TIME ( #169, #325 ) ;
#56 = ORIENTED_EDGE ( 'NONE', *, *, #52, .T. ) ;
#57 = APPROVAL_DATE_TIME ( #55, #329 ) ;
#58 = EDGE_CURVE ( 'NONE', #3, #25, #402, .T. ) ;
#59 = ORIENTED_EDGE ( 'NONE', *, *, #60, .F. ) ;
#60 = EDGE_CURVE ( 'NONE', #61, #51, #396, .T. ) ;
#61 = VERTEX_POINT ( 'NONE', #395 ) ;
#62 = VERTEX_POINT ( 'NONE', #400 ) ;
#63 = ORIENTED_EDGE ( 'NONE', *, *, #18, .T. ) ;
#64 = ADVANCED_FACE ( 'NONE', ( #399 ), #398, .F. ) ;
#65 = ORIENTED_EDGE ( 'NONE', *, *, #108, .F. ) ;
#66 = ORIENTED_EDGE ( 'NONE', *, *, #68, .F. ) ;
#67 = EDGE_LOOP ( 'NONE', ( #88, #66, #89, #65, #96 ) ) ;
#68 = EDGE_CURVE ( 'NONE', #62, #22, #413, .T. ) ;
#69 = EDGE_CURVE ( 'NONE', #71, #46, #416, .T. ) ;
#70 = EDGE_CURVE ( 'NONE', #79, #71, #216, .T. ) ;
#71 = VERTEX_POINT ( 'NONE', #222 ) ;
#72 = ORIENTED_EDGE ( 'NONE', *, *, #33, .F. ) ;
#73 = ORIENTED_EDGE ( 'NONE', *, *, #82, .T. ) ;
#74 = ORIENTED_EDGE ( 'NONE', *, *, #78, .F. ) ;
#75 = ADVANCED_FACE ( 'NONE', ( #221, #220 ), #248, .F. ) ;
#76 = EDGE_LOOP ( 'NONE', ( #81, #59 ) ) ;
#77 = ORIENTED_EDGE ( 'NONE', *, *, #58, .T. ) ;
#78 = EDGE_CURVE ( 'NONE', #22, #62, #233, .T. ) ;
#79 = VERTEX_POINT ( 'NONE', #232 ) ;
#80 = EDGE_CURVE ( 'NONE', #51, #7, #231, .T. ) ;
#81 = ORIENTED_EDGE ( 'NONE', *, *, #52, .F. ) ;
#82 = EDGE_CURVE ( 'NONE', #34, #46, #247, .T. ) ;
#83 = ORIENTED_EDGE ( 'NONE', *, *, #10, .T. ) ;
#84 = ORIENTED_EDGE ( 'NONE', *, *, #85, .F. ) ;
#85 = EDGE_CURVE ( 'NONE', #35, #71, #242, .T. ) ;
#86 = EDGE_LOOP ( 'NONE', ( #124, #126, #125, #90, #91 ) ) ;
#87 = ADVANCED_FACE ( 'NONE', ( #272 ), #271, .F. ) ;
#88 = ORIENTED_EDGE ( 'NONE', *, *, #18, .F. ) ;
#89 = ORIENTED_EDGE ( 'NONE', *, *, #8, .T. ) ;
#90 = ORIENTED_EDGE ( 'NONE', *, *, #5, .T. ) ;
#91 = ORIENTED_EDGE ( 'NONE', *, *, #69, .F. ) ;
#92 = ADVANCED_FACE ( 'NONE', ( #262, #261 ), #264, .F. ) ;
#93 = EDGE_LOOP ( 'NONE', ( #94, #95 ) ) ;
#94 = ORIENTED_EDGE ( 'NONE', *, *, #68, .T. ) ;
#95 = ORIENTED_EDGE ( 'NONE', *, *, #78, .T. ) ;
#96 = ORIENTED_EDGE ( 'NONE', *, *, #47, .F. ) ;
#97 = EDGE_LOOP ( 'NONE', ( #98, #99, #100, #101 ) ) ;
#98 = ORIENTED_EDGE ( 'NONE', *, *, #4, .F. ) ;
#99 = ORIENTED_EDGE ( 'NONE', *, *, #60, .T. ) ;
#100 = ORIENTED_EDGE ( 'NONE', *, *, #80, .T. ) ;
#101 = ORIENTED_EDGE ( 'NONE', *, *, #102, .F. ) ;
#102 = EDGE_CURVE ( 'NONE', #14, #7, #268, .T. ) ;
#103 = EDGE_LOOP ( 'NONE', ( #107, #105 ) ) ;
#104 = ADVANCED_FACE ( 'NONE', ( #259 ), #251, .F. ) ;
#105 = ORIENTED_EDGE ( 'NONE', *, *, #102, .T. ) ;
#106 = ADVANCED_FACE ( 'NONE', ( #253 ), #281, .T. ) ;
#107 = ORIENTED_EDGE ( 'NONE', *, *, #16, .T. ) ;
#108 = EDGE_CURVE ( 'NONE', #79, #21, #276, .T. ) ;
#109 = ORIENTED_EDGE ( 'NONE', *, *, #145, .T. ) ;
#110 = DIRECTION ( 'NONE',  ( -0.0000000000000000000, 3.154042683594195000E-017, -1.000000000000000000 ) ) ;
#111 = VECTOR ( 'NONE', #110, 1000.000000000000000 ) ;
#112 = CARTESIAN_POINT ( 'NONE',  ( 0.0000000000000000000, 5.722500000000001900, -110.0000000000000100 ) ) ;
#113 = ORIENTED_EDGE ( 'NONE', *, *, #85, .T. ) ;
#114 = LINE ( 'NONE', #112, #111 ) ;
#115 = DIRECTION ( 'NONE',  ( 1.000000000000000000, 0.0000000000000000000, 0.0000000000000000000 ) ) ;
#116 = DIRECTION ( 'NONE',  ( -0.0000000000000000000, -0.0000000000000000000, 1.000000000000000000 ) ) ;
#117 = DIRECTION ( 'NONE',  ( -0.0000000000000000000, -0.0000000000000000000, 1.000000000000000000 ) ) ;
#118 = VECTOR ( 'NONE', #117, 1000.000000000000000 ) ;
#119 = CARTESIAN_POINT ( 'NONE',  ( -9.249999999999998200, 1.132760877285698800E-015, -4.336808689942017700E-016 ) ) ;
#120 = DIRECTION ( 'NONE',  ( -0.0000000000000000000, -0.0000000000000000000, 1.000000000000000000 ) ) ;
#121 = CARTESIAN_POINT ( 'NONE',  ( -9.250000000000000000, 1.132760877285699000E-015, 0.0000000000000000000 ) ) ;
#122 = EDGE_LOOP ( 'NONE', ( #123, #109, #161, #147 ) ) ;
#123 = ORIENTED_EDGE ( 'NONE', *, *, #42, .F. ) ;
#124 = ORIENTED_EDGE ( 'NONE', *, *, #70, .F. ) ;
#125 = ORIENTED_EDGE ( 'NONE', *, *, #45, .T. ) ;
#126 = ORIENTED_EDGE ( 'NONE', *, *, #108, .T. ) ;
#127 = ADVANCED_FACE ( 'NONE', ( #277 ), #308, .F. ) ;
#128 = ORIENTED_EDGE ( 'NONE', *, *, #26, .T. ) ;
#129 = CARTESIAN_POINT ( 'NONE',  ( 9.250000000000000000, 0.0000000000000000000, 0.0000000000000000000 ) ) ;
#130 = DIRECTION ( 'NONE',  ( -0.7881360308231405400, 0.0000000000000000000, -0.6155010941650271800 ) ) ;
#131 = VECTOR ( 'NONE', #130, 1000.000000000000000 ) ;
#132 = CARTESIAN_POINT ( 'NONE',  ( -5.722499999999985900, 0.0000000000000000000, -99.00000000000000000 ) ) ;
#133 = CLOSED_SHELL ( 'NONE', ( #43, #29, #54, #64, #13, #75, #159, #87, #106, #92, #104, #127 ) ) ;
#134 = LINE ( 'NONE', #119, #118 ) ;
#135 = ORIENTED_EDGE ( 'NONE', *, *, #137, .T. ) ;
#136 = ORIENTED_EDGE ( 'NONE', *, *, #145, .F. ) ;
#137 = EDGE_CURVE ( 'NONE', #40, #30, #303, .T. ) ;
#138 = ORIENTED_EDGE ( 'NONE', *, *, #69, .T. ) ;
#139 = DIRECTION ( 'NONE',  ( -0.7071067811865514600, 0.0000000000000000000, -0.7071067811865435800 ) ) ;
#140 = DIRECTION ( 'NONE',  ( 1.000000000000000000, 0.0000000000000000000, 0.0000000000000000000 ) ) ;
#141 = CARTESIAN_POINT ( 'NONE',  ( 0.0000000000000000000, 0.0000000000000000000, 0.0000000000000000000 ) ) ;
#142 = AXIS2_PLACEMENT_3D ( 'NONE', #141, #120, #140 ) ;
#143 = CIRCLE ( 'NONE', #142, 9.250000000000000000 ) ;
#144 = LINE ( 'NONE', #177, #176 ) ;
#145 = EDGE_CURVE ( 'NONE', #35, #34, #298, .T. ) ;
#146 = ORIENTED_EDGE ( 'NONE', *, *, #82, .F. ) ;
#147 = ORIENTED_EDGE ( 'NONE', *, *, #137, .F. ) ;
#148 = CARTESIAN_POINT ( 'NONE',  ( 0.0000000000000000000, 0.0000000000000000000, -4.336808689942017700E-016 ) ) ;
#149 = AXIS2_PLACEMENT_3D ( 'NONE', #148, #116, #115 ) ;
#150 = CYLINDRICAL_SURFACE ( 'NONE', #149, 6.578499999999999100 ) ;
#151 = CARTESIAN_POINT ( 'NONE',  ( -6.578499999999999100, 0.0000000000000000000, -99.66850000000000900 ) ) ;
#152 = LINE ( 'NONE', #151, #131 ) ;
#153 = CARTESIAN_POINT ( 'NONE',  ( 0.0000000000000000000, 0.0000000000000000000, -99.66850000000000900 ) ) ;
#154 = CIRCLE ( 'NONE', #158, 6.578499999999999100 ) ;
#155 = FACE_OUTER_BOUND ( 'NONE', #11, .T. ) ;
#156 = DIRECTION ( 'NONE',  ( 1.000000000000000000, 0.0000000000000000000, 0.0000000000000000000 ) ) ;
#157 = DIRECTION ( 'NONE',  ( -0.0000000000000000000, -0.0000000000000000000, 1.000000000000000000 ) ) ;
#158 = AXIS2_PLACEMENT_3D ( 'NONE', #153, #157, #156 ) ;
#159 = ADVANCED_FACE ( 'NONE', ( #294 ), #293, .F. ) ;
#160 = EDGE_LOOP ( 'NONE', ( #146, #136, #113, #138 ) ) ;
#161 = ORIENTED_EDGE ( 'NONE', *, *, #28, .T. ) ;
#162 = CARTESIAN_POINT ( 'NONE',  ( 7.007809859748550200E-016, -5.722499999999993000, -1.804900925686774700E-016 ) ) ;
#163 = DIRECTION ( 'NONE',  ( 1.000000000000000000, 0.0000000000000000000, 0.0000000000000000000 ) ) ;
#164 = DIRECTION ( 'NONE',  ( -0.0000000000000000000, -0.0000000000000000000, 1.000000000000000000 ) ) ;
#165 = CARTESIAN_POINT ( 'NONE',  ( 0.0000000000000000000, 0.0000000000000000000, -110.0000000000000000 ) ) ;
#166 = AXIS2_PLACEMENT_3D ( 'NONE', #165, #164, #163 ) ;
#167 = CIRCLE ( 'NONE', #166, 6.808226282101412800 ) ;
#168 = CARTESIAN_POINT ( 'NONE',  ( 7.007809859748546200E-016, -5.722499999999985900, -99.00000000000000000 ) ) ;
#169 = CALENDAR_DATE ( 2015, 11, 8 ) ;
#170 = DIRECTION ( 'NONE',  ( -0.0000000000000000000, 3.154042683594195000E-017, -1.000000000000000000 ) ) ;
#171 = CARTESIAN_POINT ( 'NONE',  ( 0.0000000000000000000, 5.722499999999985900, -99.00000000000000000 ) ) ;
#172 = VECTOR ( 'NONE', #139, 1000.000000000000000 ) ;
#173 = CARTESIAN_POINT ( 'NONE',  ( -6.808226282101412800, 0.0000000000000000000, -110.0000000000000000 ) ) ;
#174 = LINE ( 'NONE', #173, #172 ) ;
#175 = DIRECTION ( 'NONE',  ( -0.0000000000000000000, -0.0000000000000000000, 1.000000000000000000 ) ) ;
#176 = VECTOR ( 'NONE', #170, 1000.000000000000000 ) ;
#177 = CARTESIAN_POINT ( 'NONE',  ( 7.007809859748556100E-016, -5.722500000000001900, -110.0000000000000100 ) ) ;
#178 = CARTESIAN_POINT ( 'NONE',  ( -6.808226282101412800, 0.0000000000000000000, -110.0000000000000000 ) ) ;
#179 = CIRCLE ( 'NONE', #204, 6.578499999999999100 ) ;
#180 = CARTESIAN_POINT ( 'NONE',  ( 6.578499999999999100, 0.0000000000000000000, -109.7702737178985900 ) ) ;
#181 = CARTESIAN_POINT ( 'NONE',  ( -6.578499999999999100, 8.056072898620507900E-016, -109.7702737178985900 ) ) ;
#182 = FACE_OUTER_BOUND ( 'NONE', #39, .T. ) ;
#183 = DIRECTION ( 'NONE',  ( 0.7071067811865514600, 8.659274570719403500E-017, -0.7071067811865435800 ) ) ;
#184 = VECTOR ( 'NONE', #183, 1000.000000000000000 ) ;
#185 = CARTESIAN_POINT ( 'NONE',  ( 6.808226282101412800, 8.337397163321891200E-016, -110.0000000000000000 ) ) ;
#186 = CARTESIAN_POINT ( 'NONE',  ( 0.0000000000000000000, 0.0000000000000000000, -110.0000000000000000 ) ) ;
#187 = CARTESIAN_POINT ( 'NONE',  ( 0.0000000000000000000, 0.0000000000000000000, -110.0000000000000000 ) ) ;
#188 = AXIS2_PLACEMENT_3D ( 'NONE', #187, #202, #195 ) ;
#189 = CONICAL_SURFACE ( 'NONE', #188, 6.808226282101412800, 0.7853981633974538300 ) ;
#190 = DIRECTION ( 'NONE',  ( 0.0000000000000000000, 0.0000000000000000000, -1.000000000000000000 ) ) ;
#191 = CARTESIAN_POINT ( 'NONE',  ( 0.0000000000000000000, 0.0000000000000000000, -99.66850000000000900 ) ) ;
#192 = AXIS2_PLACEMENT_3D ( 'NONE', #191, #190, #193 ) ;
#193 = DIRECTION ( 'NONE',  ( -1.000000000000000000, 0.0000000000000000000, 0.0000000000000000000 ) ) ;
#194 = CONICAL_SURFACE ( 'NONE', #192, 6.578499999999999100, 0.9077747214735943900 ) ;
#195 = DIRECTION ( 'NONE',  ( -1.000000000000000000, 0.0000000000000000000, 0.0000000000000000000 ) ) ;
#196 = AXIS2_PLACEMENT_3D ( 'NONE', #186, #175, #225 ) ;
#197 = CIRCLE ( 'NONE', #196, 9.249999999999998200 ) ;
#198 = CARTESIAN_POINT ( 'NONE',  ( 6.808226282101412800, 8.337397163321891200E-016, -110.0000000000000000 ) ) ;
#199 = DIRECTION ( 'NONE',  ( 1.000000000000000000, 0.0000000000000000000, 0.0000000000000000000 ) ) ;
#200 = DIRECTION ( 'NONE',  ( -0.0000000000000000000, -0.0000000000000000000, 1.000000000000000000 ) ) ;
#201 = LINE ( 'NONE', #185, #184 ) ;
#202 = DIRECTION ( 'NONE',  ( 0.0000000000000000000, 0.0000000000000000000, -1.000000000000000000 ) ) ;
#203 = CARTESIAN_POINT ( 'NONE',  ( 0.0000000000000000000, 0.0000000000000000000, -109.7702737178985900 ) ) ;
#204 = AXIS2_PLACEMENT_3D ( 'NONE', #203, #200, #199 ) ;
#205 = FACE_OUTER_BOUND ( 'NONE', #38, .T. ) ;
#206 = DIRECTION ( 'NONE',  ( 1.000000000000000000, 0.0000000000000000000, 0.0000000000000000000 ) ) ;
#207 = CARTESIAN_POINT ( 'NONE',  ( 0.0000000000000000000, 0.0000000000000000000, -99.00000000000000000 ) ) ;
#208 = AXIS2_PLACEMENT_3D ( 'NONE', #207, #211, #206 ) ;
#209 = CARTESIAN_POINT ( 'NONE',  ( 9.249999999999998200, 0.0000000000000000000, -110.0000000000000000 ) ) ;
#210 = AXIS2_PLACEMENT_3D ( 'NONE', #215, #214, #213 ) ;
#211 = DIRECTION ( 'NONE',  ( -0.0000000000000000000, -0.0000000000000000000, 1.000000000000000000 ) ) ;
#212 = CARTESIAN_POINT ( 'NONE',  ( -6.578499999999999100, 8.056072898620507900E-016, -99.66850000000000900 ) ) ;
#213 = DIRECTION ( 'NONE',  ( 1.000000000000000000, 0.0000000000000000000, 0.0000000000000000000 ) ) ;
#214 = DIRECTION ( 'NONE',  ( -0.0000000000000000000, -0.0000000000000000000, 1.000000000000000000 ) ) ;
#215 = CARTESIAN_POINT ( 'NONE',  ( 0.0000000000000000000, 0.0000000000000000000, -99.00000000000000000 ) ) ;
#216 = LINE ( 'NONE', #219, #224 ) ;
#217 = CIRCLE ( 'NONE', #208, 5.722499999999985900 ) ;
#218 = CIRCLE ( 'NONE', #210, 5.722499999999985900 ) ;
#219 = CARTESIAN_POINT ( 'NONE',  ( 6.578499999999999100, 8.056072898620507900E-016, -99.66850000000000900 ) ) ;
#220 = FACE_BOUND ( 'NONE', #44, .T. ) ;
#221 = FACE_OUTER_BOUND ( 'NONE', #76, .T. ) ;
#222 = CARTESIAN_POINT ( 'NONE',  ( 6.578499999999999100, 0.0000000000000000000, -99.66850000000000900 ) ) ;
#223 = DIRECTION ( 'NONE',  ( 0.7881360308231405400, 9.651563910223668400E-017, -0.6155010941650271800 ) ) ;
#224 = VECTOR ( 'NONE', #223, 1000.000000000000000 ) ;
#225 = DIRECTION ( 'NONE',  ( 1.000000000000000000, 0.0000000000000000000, 0.0000000000000000000 ) ) ;
#226 = DIRECTION ( 'NONE',  ( 1.000000000000000000, 0.0000000000000000000, 0.0000000000000000000 ) ) ;
#227 = CARTESIAN_POINT ( 'NONE',  ( 0.0000000000000000000, 9.249999999999998200, -110.0000000000000000 ) ) ;
#228 = DIRECTION ( 'NONE',  ( -0.0000000000000000000, -0.0000000000000000000, 1.000000000000000000 ) ) ;
#229 = VECTOR ( 'NONE', #228, 1000.000000000000000 ) ;
#230 = CARTESIAN_POINT ( 'NONE',  ( 9.249999999999998200, 0.0000000000000000000, -4.336808689942017700E-016 ) ) ;
#231 = LINE ( 'NONE', #230, #229 ) ;
#232 = CARTESIAN_POINT ( 'NONE',  ( 5.722499999999985900, 7.531941379184522200E-016, -99.00000000000000000 ) ) ;
#233 = CIRCLE ( 'NONE', #237, 5.722499999999989500 ) ;
#234 = DIRECTION ( 'NONE',  ( 0.0000000000000000000, 1.000000000000000000, 3.154042683594195600E-017 ) ) ;
#235 = DIRECTION ( 'NONE',  ( -0.0000000000000000000, 3.154042683594195000E-017, -1.000000000000000000 ) ) ;
#236 = CARTESIAN_POINT ( 'NONE',  ( 0.0000000000000000000, -3.469446951953615000E-015, 0.0000000000000000000 ) ) ;
#237 = AXIS2_PLACEMENT_3D ( 'NONE', #236, #235, #234 ) ;
#238 = AXIS2_PLACEMENT_3D ( 'NONE', #227, #249, #226 ) ;
#239 = DIRECTION ( 'NONE',  ( -0.0000000000000000000, -0.0000000000000000000, 1.000000000000000000 ) ) ;
#240 = VECTOR ( 'NONE', #239, 1000.000000000000000 ) ;
#241 = CARTESIAN_POINT ( 'NONE',  ( 6.578499999999999100, 0.0000000000000000000, -4.336808689942017700E-016 ) ) ;
#242 = LINE ( 'NONE', #241, #240 ) ;
#243 = CC_DESIGN_APPROVAL ( #329, ( #331 ) ) ;
#244 = DIRECTION ( 'NONE',  ( -0.0000000000000000000, -0.0000000000000000000, 1.000000000000000000 ) ) ;
#245 = VECTOR ( 'NONE', #244, 1000.000000000000000 ) ;
#246 = CARTESIAN_POINT ( 'NONE',  ( -6.578499999999999100, 8.056072898620507900E-016, -4.336808689942017700E-016 ) ) ;
#247 = LINE ( 'NONE', #246, #245 ) ;
#248 = PLANE ( 'NONE',  #238 ) ;
#249 = DIRECTION ( 'NONE',  ( 0.0000000000000000000, -0.0000000000000000000, 1.000000000000000000 ) ) ;
#250 = AXIS2_PLACEMENT_3D ( 'NONE', #254, #283, #282 ) ;
#251 = CONICAL_SURFACE ( 'NONE', #250, 6.578499999999999100, 0.9077747214735943900 ) ;
#252 = CARTESIAN_POINT ( 'NONE',  ( 0.0000000000000000000, 0.0000000000000000000, -4.336808689942017700E-016 ) ) ;
#253 = FACE_OUTER_BOUND ( 'NONE', #97, .T. ) ;
#254 = CARTESIAN_POINT ( 'NONE',  ( 0.0000000000000000000, 0.0000000000000000000, -99.66850000000000900 ) ) ;
#255 = DIRECTION ( 'NONE',  ( 1.000000000000000000, 0.0000000000000000000, 0.0000000000000000000 ) ) ;
#256 = DIRECTION ( 'NONE',  ( -0.0000000000000000000, -0.0000000000000000000, 1.000000000000000000 ) ) ;
#257 = CARTESIAN_POINT ( 'NONE',  ( 0.0000000000000000000, 0.0000000000000000000, 0.0000000000000000000 ) ) ;
#258 = AXIS2_PLACEMENT_3D ( 'NONE', #257, #256, #255 ) ;
#259 = FACE_OUTER_BOUND ( 'NONE', #86, .T. ) ;
#260 = PRODUCT ( '19-0408-02_outokumpu', '19-0408-02_outokumpu', '', ( #50 ) ) ;
#261 = FACE_OUTER_BOUND ( 'NONE', #103, .T. ) ;
#262 = FACE_BOUND ( 'NONE', #93, .T. ) ;
#263 = CARTESIAN_POINT ( 'NONE',  ( 0.0000000000000000000, 0.0000000000000000000, -110.0000000000000100 ) ) ;
#264 = PLANE ( 'NONE',  #266 ) ;
#265 = CARTESIAN_POINT ( 'NONE',  ( 0.0000000000000000000, 9.250000000000000000, -2.168404344971008900E-016 ) ) ;
#266 = AXIS2_PLACEMENT_3D ( 'NONE', #265, #270, #269 ) ;
#267 = AXIS2_PLACEMENT_3D ( 'NONE', #263, #273, #318 ) ;
#268 = CIRCLE ( 'NONE', #258, 9.250000000000000000 ) ;
#269 = DIRECTION ( 'NONE',  ( -1.000000000000000000, 0.0000000000000000000, -0.0000000000000000000 ) ) ;
#270 = DIRECTION ( 'NONE',  ( 0.0000000000000000000, 0.0000000000000000000, -1.000000000000000000 ) ) ;
#271 = CYLINDRICAL_SURFACE ( 'NONE', #267, 5.722500000000001900 ) ;
#272 = FACE_OUTER_BOUND ( 'NONE', #67, .T. ) ;
#273 = DIRECTION ( 'NONE',  ( -0.0000000000000000000, 3.154042683594195000E-017, -1.000000000000000000 ) ) ;
#274 = CARTESIAN_POINT ( 'NONE',  ( 0.0000000000000000000, 0.0000000000000000000, -99.00000000000000000 ) ) ;
#275 = AXIS2_PLACEMENT_3D ( 'NONE', #274, #311, #310 ) ;
#276 = CIRCLE ( 'NONE', #275, 5.722499999999985900 ) ;
#277 = FACE_OUTER_BOUND ( 'NONE', #122, .T. ) ;
#278 = DIRECTION ( 'NONE',  ( 1.000000000000000000, 0.0000000000000000000, 0.0000000000000000000 ) ) ;
#279 = DIRECTION ( 'NONE',  ( -0.0000000000000000000, -0.0000000000000000000, 1.000000000000000000 ) ) ;
#280 = AXIS2_PLACEMENT_3D ( 'NONE', #252, #279, #278 ) ;
#281 = CYLINDRICAL_SURFACE ( 'NONE', #280, 9.249999999999998200 ) ;
#282 = DIRECTION ( 'NONE',  ( -1.000000000000000000, 0.0000000000000000000, 0.0000000000000000000 ) ) ;
#283 = DIRECTION ( 'NONE',  ( 0.0000000000000000000, 0.0000000000000000000, -1.000000000000000000 ) ) ;
#284 = UNCERTAINTY_MEASURE_WITH_UNIT (LENGTH_MEASURE( 1.000000000000000100E-005 ), #287, 'distance_accuracy_value', 'NONE');
#285 =( NAMED_UNIT ( * ) SI_UNIT ( $, .STERADIAN. ) SOLID_ANGLE_UNIT ( ) );
#286 =( NAMED_UNIT ( * ) PLANE_ANGLE_UNIT ( ) SI_UNIT ( $, .RADIAN. ) );
#287 =( LENGTH_UNIT ( ) NAMED_UNIT ( * ) SI_UNIT ( .MILLI., .METRE. ) );
#288 = DIRECTION ( 'NONE',  ( 1.000000000000000000, 0.0000000000000000000, 0.0000000000000000000 ) ) ;
#289 = DIRECTION ( 'NONE',  ( -0.0000000000000000000, -0.0000000000000000000, 1.000000000000000000 ) ) ;
#290 = CARTESIAN_POINT ( 'NONE',  ( 0.0000000000000000000, 0.0000000000000000000, -4.336808689942017700E-016 ) ) ;
#291 = AXIS2_PLACEMENT_3D ( 'NONE', #290, #289, #288 ) ;
#292 = AXIS2_PLACEMENT_3D ( 'NONE', #315, #314, #313 ) ;
#293 = CYLINDRICAL_SURFACE ( 'NONE', #291, 6.578499999999999100 ) ;
#294 = FACE_OUTER_BOUND ( 'NONE', #160, .T. ) ;
#295 = DIRECTION ( 'NONE',  ( 1.000000000000000000, 0.0000000000000000000, 0.0000000000000000000 ) ) ;
#296 = DIRECTION ( 'NONE',  ( -0.0000000000000000000, -0.0000000000000000000, 1.000000000000000000 ) ) ;
#297 = AXIS2_PLACEMENT_3D ( 'NONE', #304, #296, #295 ) ;
#298 = CIRCLE ( 'NONE', #297, 6.578499999999999100 ) ;
#299 = DIRECTION ( 'NONE',  ( 1.000000000000000000, 0.0000000000000000000, 0.0000000000000000000 ) ) ;
#300 = DIRECTION ( 'NONE',  ( -0.0000000000000000000, -0.0000000000000000000, 1.000000000000000000 ) ) ;
#301 = CARTESIAN_POINT ( 'NONE',  ( 0.0000000000000000000, 0.0000000000000000000, -110.0000000000000000 ) ) ;
#302 = AXIS2_PLACEMENT_3D ( 'NONE', #301, #300, #299 ) ;
#303 = CIRCLE ( 'NONE', #302, 6.808226282101412800 ) ;
#304 = CARTESIAN_POINT ( 'NONE',  ( 0.0000000000000000000, 0.0000000000000000000, -109.7702737178985900 ) ) ;
#305 = DIRECTION ( 'NONE',  ( -1.000000000000000000, 0.0000000000000000000, 0.0000000000000000000 ) ) ;
#306 = DIRECTION ( 'NONE',  ( 0.0000000000000000000, 0.0000000000000000000, -1.000000000000000000 ) ) ;
#307 = AXIS2_PLACEMENT_3D ( 'NONE', #309, #306, #305 ) ;
#308 = CONICAL_SURFACE ( 'NONE', #307, 6.808226282101412800, 0.7853981633974538300 ) ;
#309 = CARTESIAN_POINT ( 'NONE',  ( 0.0000000000000000000, 0.0000000000000000000, -110.0000000000000000 ) ) ;
#310 = DIRECTION ( 'NONE',  ( 1.000000000000000000, 0.0000000000000000000, 0.0000000000000000000 ) ) ;
#311 = DIRECTION ( 'NONE',  ( -0.0000000000000000000, -0.0000000000000000000, 1.000000000000000000 ) ) ;
#312 = PERSON ( 'UNSPECIFIED', 'UNSPECIFIED', 'UNSPECIFIED', ('UNSPECIFIED'), ('UNSPECIFIED'), ('UNSPECIFIED') ) ;
#313 = DIRECTION ( 'NONE',  ( 1.000000000000000000, 0.0000000000000000000, 0.0000000000000000000 ) ) ;
#314 = DIRECTION ( 'NONE',  ( 0.0000000000000000000, 0.0000000000000000000, 1.000000000000000000 ) ) ;
#315 = CARTESIAN_POINT ( 'NONE',  ( 0.0000000000000000000, 0.0000000000000000000, 0.0000000000000000000 ) ) ;
#316 = ADVANCED_BREP_SHAPE_REPRESENTATION ( '19-0408-02_outokumpu', ( #37, #292 ), #317 ) ;
#317 =( GEOMETRIC_REPRESENTATION_CONTEXT ( 3 ) GLOBAL_UNCERTAINTY_ASSIGNED_CONTEXT ( ( #284 ) ) GLOBAL_UNIT_ASSIGNED_CONTEXT ( ( #287, #286, #285 ) ) REPRESENTATION_CONTEXT ( 'NONE', 'WORKASPACE' ) );
#318 = DIRECTION ( 'NONE',  ( 0.0000000000000000000, 1.000000000000000000, 0.0000000000000000000 ) ) ;
#319 = ORGANIZATION ( 'UNSPECIFIED', 'UNSPECIFIED', '' ) ;
#320 = APPLICATION_PROTOCOL_DEFINITION ( 'international standard', 'config_control_design', 1994, #321 ) ;
#321 = APPLICATION_CONTEXT ( 'configuration controlled 3d designs of mechanical parts and assemblies' ) ;
#322 = PERSON_AND_ORGANIZATION ( #312, #319 ) ;
#323 = DESIGN_CONTEXT ( 'detailed design', #321, 'design' ) ;
#324 = CC_DESIGN_PERSON_AND_ORGANIZATION_ASSIGNMENT ( #333, #332, ( #260 ) ) ;
#325 = LOCAL_TIME ( 11, 37, 22.00000000000000000, #326 ) ;
#326 = COORDINATED_UNIVERSAL_TIME_OFFSET ( 1, 0, .AHEAD. ) ;
#327 = APPROVAL_PERSON_ORGANIZATION ( #322, #329, #328 ) ;
#328 = APPROVAL_ROLE ( '' ) ;
#329 = APPROVAL ( #330, 'UNSPECIFIED' ) ;
#330 = APPROVAL_STATUS ( 'not_yet_approved' ) ;
#331 = PRODUCT_DEFINITION ( 'UNKNOWN', '', #378, #323 ) ;
#332 = PERSON_AND_ORGANIZATION_ROLE ( 'design_owner' ) ;
#333 = PERSON_AND_ORGANIZATION ( #312, #319 ) ;
#334 = PERSON_AND_ORGANIZATION ( #312, #319 ) ;
#335 = SHAPE_DEFINITION_REPRESENTATION ( #336, #316 ) ;
#336 = PRODUCT_DEFINITION_SHAPE ( 'NONE', 'NONE',  #331 ) ;
#337 = PRODUCT_RELATED_PRODUCT_CATEGORY ( 'detail', '', ( #260 ) ) ;
#338 = CC_DESIGN_SECURITY_CLASSIFICATION ( #359, ( #378 ) ) ;
#339 = CC_DESIGN_APPROVAL ( #347, ( #359 ) ) ;
#340 = APPROVAL_DATE_TIME ( #341, #347 ) ;
#341 = DATE_AND_TIME ( #342, #343 ) ;
#342 = CALENDAR_DATE ( 2015, 11, 8 ) ;
#343 = LOCAL_TIME ( 11, 37, 22.00000000000000000, #344 ) ;
#344 = COORDINATED_UNIVERSAL_TIME_OFFSET ( 1, 0, .AHEAD. ) ;
#345 = APPROVAL_PERSON_ORGANIZATION ( #349, #347, #346 ) ;
#346 = APPROVAL_ROLE ( '' ) ;
#347 = APPROVAL ( #348, 'UNSPECIFIED' ) ;
#348 = APPROVAL_STATUS ( 'not_yet_approved' ) ;
#349 = PERSON_AND_ORGANIZATION ( #312, #319 ) ;
#350 = CC_DESIGN_DATE_AND_TIME_ASSIGNMENT ( #352, #351, ( #359 ) ) ;
#351 = DATE_TIME_ROLE ( 'classification_date' ) ;
#352 = DATE_AND_TIME ( #353, #354 ) ;
#353 = CALENDAR_DATE ( 2015, 11, 8 ) ;
#354 = LOCAL_TIME ( 11, 37, 22.00000000000000000, #355 ) ;
#355 = COORDINATED_UNIVERSAL_TIME_OFFSET ( 1, 0, .AHEAD. ) ;
#356 = CC_DESIGN_PERSON_AND_ORGANIZATION_ASSIGNMENT ( #358, #357, ( #359 ) ) ;
#357 = PERSON_AND_ORGANIZATION_ROLE ( 'classification_officer' ) ;
#358 = PERSON_AND_ORGANIZATION ( #312, #319 ) ;
#359 = SECURITY_CLASSIFICATION ( '', '', #360 ) ;
#360 = SECURITY_CLASSIFICATION_LEVEL ( 'unclassified' ) ;
#361 = CC_DESIGN_PERSON_AND_ORGANIZATION_ASSIGNMENT ( #363, #362, ( #378 ) ) ;
#362 = PERSON_AND_ORGANIZATION_ROLE ( 'design_supplier' ) ;
#363 = PERSON_AND_ORGANIZATION ( #312, #319 ) ;
#364 = CC_DESIGN_PERSON_AND_ORGANIZATION_ASSIGNMENT ( #366, #365, ( #378 ) ) ;
#365 = PERSON_AND_ORGANIZATION_ROLE ( 'creator' ) ;
#366 = PERSON_AND_ORGANIZATION ( #312, #319 ) ;
#367 = CC_DESIGN_APPROVAL ( #375, ( #378 ) ) ;
#368 = APPROVAL_DATE_TIME ( #369, #375 ) ;
#369 = DATE_AND_TIME ( #370, #371 ) ;
#370 = CALENDAR_DATE ( 2015, 11, 8 ) ;
#371 = LOCAL_TIME ( 11, 37, 22.00000000000000000, #372 ) ;
#372 = COORDINATED_UNIVERSAL_TIME_OFFSET ( 1, 0, .AHEAD. ) ;
#373 = APPROVAL_PERSON_ORGANIZATION ( #377, #375, #374 ) ;
#374 = APPROVAL_ROLE ( '' ) ;
#375 = APPROVAL ( #376, 'UNSPECIFIED' ) ;
#376 = APPROVAL_STATUS ( 'not_yet_approved' ) ;
#377 = PERSON_AND_ORGANIZATION ( #312, #319 ) ;
#378 = PRODUCT_DEFINITION_FORMATION_WITH_SPECIFIED_SOURCE ( 'ANY', '', #260, .NOT_KNOWN. ) ;
#379 = CC_DESIGN_DATE_AND_TIME_ASSIGNMENT ( #381, #380, ( #331 ) ) ;
#380 = DATE_TIME_ROLE ( 'creation_date' ) ;
#381 = DATE_AND_TIME ( #382, #383 ) ;
#382 = CALENDAR_DATE ( 2015, 11, 8 ) ;
#383 = LOCAL_TIME ( 11, 37, 22.00000000000000000, #384 ) ;
#384 = COORDINATED_UNIVERSAL_TIME_OFFSET ( 1, 0, .AHEAD. ) ;
#385 = CC_DESIGN_PERSON_AND_ORGANIZATION_ASSIGNMENT ( #334, #386, ( #331 ) ) ;
#386 = PERSON_AND_ORGANIZATION_ROLE ( 'creator' ) ;
#387 = CARTESIAN_POINT ( 'NONE',  ( 0.0000000000000000000, 0.0000000000000000000, -99.66850000000000900 ) ) ;
#388 = DIRECTION ( 'NONE',  ( 0.0000000000000000000, 1.000000000000000000, 0.0000000000000000000 ) ) ;
#389 = DIRECTION ( 'NONE',  ( -0.0000000000000000000, 3.154042683594195000E-017, -1.000000000000000000 ) ) ;
#390 = AXIS2_PLACEMENT_3D ( 'NONE', #397, #389, #388 ) ;
#391 = DIRECTION ( 'NONE',  ( -0.0000000000000000000, -0.0000000000000000000, 1.000000000000000000 ) ) ;
#392 = DIRECTION ( 'NONE',  ( 1.000000000000000000, 0.0000000000000000000, 0.0000000000000000000 ) ) ;
#393 = DIRECTION ( 'NONE',  ( -0.0000000000000000000, -0.0000000000000000000, 1.000000000000000000 ) ) ;
#394 = AXIS2_PLACEMENT_3D ( 'NONE', #403, #393, #392 ) ;
#395 = CARTESIAN_POINT ( 'NONE',  ( -9.249999999999998200, 1.132760877285698800E-015, -110.0000000000000000 ) ) ;
#396 = CIRCLE ( 'NONE', #394, 9.249999999999998200 ) ;
#397 = CARTESIAN_POINT ( 'NONE',  ( 0.0000000000000000000, 0.0000000000000000000, -110.0000000000000100 ) ) ;
#398 = CYLINDRICAL_SURFACE ( 'NONE', #390, 5.722500000000001900 ) ;
#399 = FACE_OUTER_BOUND ( 'NONE', #23, .T. ) ;
#400 = CARTESIAN_POINT ( 'NONE',  ( 0.0000000000000000000, 5.722499999999985900, 1.804900925686775000E-016 ) ) ;
#401 = CYLINDRICAL_SURFACE ( 'NONE', #419, 9.249999999999998200 ) ;
#402 = CIRCLE ( 'NONE', #408, 5.722499999999985900 ) ;
#403 = CARTESIAN_POINT ( 'NONE',  ( 0.0000000000000000000, 0.0000000000000000000, -110.0000000000000000 ) ) ;
#404 = FACE_OUTER_BOUND ( 'NONE', #24, .T. ) ;
#405 = DIRECTION ( 'NONE',  ( 1.000000000000000000, 0.0000000000000000000, 0.0000000000000000000 ) ) ;
#406 = DIRECTION ( 'NONE',  ( -0.0000000000000000000, -0.0000000000000000000, 1.000000000000000000 ) ) ;
#407 = CARTESIAN_POINT ( 'NONE',  ( 0.0000000000000000000, 0.0000000000000000000, -99.00000000000000000 ) ) ;
#408 = AXIS2_PLACEMENT_3D ( 'NONE', #407, #406, #405 ) ;
#409 = DIRECTION ( 'NONE',  ( 0.0000000000000000000, 1.000000000000000000, 3.154042683594195600E-017 ) ) ;
#410 = DIRECTION ( 'NONE',  ( -0.0000000000000000000, 3.154042683594195000E-017, -1.000000000000000000 ) ) ;
#411 = CARTESIAN_POINT ( 'NONE',  ( 0.0000000000000000000, -3.469446951953615000E-015, 0.0000000000000000000 ) ) ;
#412 = AXIS2_PLACEMENT_3D ( 'NONE', #411, #410, #409 ) ;
#413 = CIRCLE ( 'NONE', #412, 5.722499999999989500 ) ;
#414 = DIRECTION ( 'NONE',  ( -0.0000000000000000000, -0.0000000000000000000, 1.000000000000000000 ) ) ;
#415 = AXIS2_PLACEMENT_3D ( 'NONE', #387, #414, #2 ) ;
#416 = CIRCLE ( 'NONE', #415, 6.578499999999999100 ) ;
#417 = CARTESIAN_POINT ( 'NONE',  ( 0.0000000000000000000, 0.0000000000000000000, -4.336808689942017700E-016 ) ) ;
#418 = DIRECTION ( 'NONE',  ( 1.000000000000000000, 0.0000000000000000000, 0.0000000000000000000 ) ) ;
#419 = AXIS2_PLACEMENT_3D ( 'NONE', #417, #391, #418 ) ;
ENDSEC;
END-ISO-10303-21;
