ISO-10303-21;
HEADER;
FILE_DESCRIPTION (( 'STEP AP203' ),
    '1' );
FILE_NAME ('3D_GR1382_DN16x1.5_18380295.STEP',
    '2024-09-23T05:58:22',
    ( '' ),
    ( '' ),
    'SwSTEP 2.0',
    'SolidWorks 2024',
    '' );
FILE_SCHEMA (( 'CONFIG_CONTROL_DESIGN' ));
ENDSEC;

DATA;
#1 = CARTESIAN_POINT ( 'NONE',  ( 7.000000000001726619, 7.347880794884145374E-16, -5.500000000000020428 ) ) ;
#2 = AXIS2_PLACEMENT_3D ( 'NONE', #151, #152, #315 ) ;
#3 = PERSON_AND_ORGANIZATION_ROLE ( 'design_supplier' ) ;
#4 = EDGE_CURVE ( 'NONE', #188, #86, #271, .T. ) ;
#5 = ORIENTED_EDGE ( 'NONE', *, *, #23, .F. ) ;
#6 = PERSON_AND_ORGANIZATION_ROLE ( 'creator' ) ;
#7 = ORIENTED_EDGE ( 'NONE', *, *, #319, .T. ) ;
#8 = VERTEX_POINT ( 'NONE', #1 ) ;
#9 = TOROIDAL_SURFACE ( 'NONE', #135, 7.500000000000017764, 0.4999999999999997780 ) ;
#10 = DIRECTION ( 'NONE',  ( -1.000000000000000000, -0.000000000000000000, -0.000000000000000000 ) ) ;
#11 = FACE_OUTER_BOUND ( 'NONE', #221, .T. ) ;
#12 = DIRECTION ( 'NONE',  ( -1.000000000000000000, -0.000000000000000000, -0.000000000000000000 ) ) ;
#13 = LINE ( 'NONE', #64, #320 ) ;
#14 = EDGE_CURVE ( 'NONE', #58, #127, #288, .T. ) ;
#15 = CC_DESIGN_PERSON_AND_ORGANIZATION_ASSIGNMENT ( #222, #160, ( #122 ) ) ;
#16 = DIRECTION ( 'NONE',  ( 0.000000000000000000, 0.000000000000000000, 1.000000000000000000 ) ) ;
#17 = AXIS2_PLACEMENT_3D ( 'NONE', #51, #234, #16 ) ;
#18 = DIRECTION ( 'NONE',  ( 0.000000000000000000, 0.000000000000000000, 1.000000000000000000 ) ) ;
#19 = CARTESIAN_POINT ( 'NONE',  ( -154.8395502972293230, 0.000000000000000000, 8.000000000000017764 ) ) ;
#20 = DIRECTION ( 'NONE',  ( -0.000000000000000000, 0.000000000000000000, 1.000000000000000000 ) ) ;
#21 = DIRECTION ( 'NONE',  ( -1.000000000000000000, -0.000000000000000000, -0.000000000000000000 ) ) ;
#22 = LOCAL_TIME ( 7, 58, 22.00000000000000000, #142 ) ;
#23 = EDGE_CURVE ( 'NONE', #8, #292, #13, .T. ) ;
#24 = COORDINATED_UNIVERSAL_TIME_OFFSET ( 1, 0, .AHEAD. ) ;
#25 = ORIENTED_EDGE ( 'NONE', *, *, #323, .T. ) ;
#26 = PRODUCT_DEFINITION_SHAPE ( 'NONE', 'NONE',  #212 ) ;
#27 = COORDINATED_UNIVERSAL_TIME_OFFSET ( 1, 0, .AHEAD. ) ;
#28 = CARTESIAN_POINT ( 'NONE',  ( -154.8395502972293230, 0.000000000000000000, 6.500000000000020428 ) ) ;
#29 = ADVANCED_FACE ( 'NONE', ( #11 ), #350, .T. ) ;
#30 = PERSON_AND_ORGANIZATION ( #116, #213 ) ;
#31 = ORIENTED_EDGE ( 'NONE', *, *, #240, .F. ) ;
#32 = APPROVAL_ROLE ( '' ) ;
#33 = ORIENTED_EDGE ( 'NONE', *, *, #106, .F. ) ;
#34 = ORIENTED_EDGE ( 'NONE', *, *, #4, .T. ) ;
#35 = DIRECTION ( 'NONE',  ( 0.000000000000000000, 0.000000000000000000, 1.000000000000000000 ) ) ;
#36 = CIRCLE ( 'NONE', #77, 8.000000000000017764 ) ;
#37 = FACE_OUTER_BOUND ( 'NONE', #275, .T. ) ;
#38 = DIRECTION ( 'NONE',  ( -1.000000000000000000, -0.000000000000000000, -0.000000000000000000 ) ) ;
#39 = ADVANCED_FACE ( 'NONE', ( #258 ), #172, .T. ) ;
#40 = DIRECTION ( 'NONE',  ( 0.000000000000000000, 0.000000000000000000, 1.000000000000000000 ) ) ;
#41 = CC_DESIGN_APPROVAL ( #129, ( #304 ) ) ;
#42 = CARTESIAN_POINT ( 'NONE',  ( -2.500000000000002220, 0.000000000000000000, 8.000000000000017764 ) ) ;
#43 = DIRECTION ( 'NONE',  ( 0.000000000000000000, -1.224646799147353454E-16, 1.000000000000000000 ) ) ;
#44 = CIRCLE ( 'NONE', #145, 0.4999999999999995559 ) ;
#45 = AXIS2_PLACEMENT_3D ( 'NONE', #46, #50, #48 ) ;
#46 = CARTESIAN_POINT ( 'NONE',  ( 6.000000000001726619, 0.000000000000000000, 0.000000000000000000 ) ) ;
#47 = ORIENTED_EDGE ( 'NONE', *, *, #193, .F. ) ;
#48 = DIRECTION ( 'NONE',  ( 0.000000000000000000, 0.000000000000000000, 1.000000000000000000 ) ) ;
#49 = VECTOR ( 'NONE', #10, 1000.000000000000000 ) ;
#50 = DIRECTION ( 'NONE',  ( -1.000000000000000000, -0.000000000000000000, -0.000000000000000000 ) ) ;
#51 = CARTESIAN_POINT ( 'NONE',  ( -2.500000000000002220, 0.000000000000000000, 0.000000000000000000 ) ) ;
#52 = PRODUCT ( '3D_GR1382_DN16x1.5_18380295', '3D_GR1382_DN16x1.5_18380295', '', ( #301 ) ) ;
#53 = APPROVAL_DATE_TIME ( #306, #129 ) ;
#54 = EDGE_LOOP ( 'NONE', ( #305, #195 ) ) ;
#55 = APPROVAL_STATUS ( 'not_yet_approved' ) ;
#56 = EDGE_LOOP ( 'NONE', ( #168, #113 ) ) ;
#57 = CC_DESIGN_PERSON_AND_ORGANIZATION_ASSIGNMENT ( #299, #167, ( #52 ) ) ;
#58 = VERTEX_POINT ( 'NONE', #147 ) ;
#59 = DATE_TIME_ROLE ( 'classification_date' ) ;
#60 = ORIENTED_EDGE ( 'NONE', *, *, #4, .F. ) ;
#61 = APPROVAL_STATUS ( 'not_yet_approved' ) ;
#62 = ORIENTED_EDGE ( 'NONE', *, *, #180, .T. ) ;
#63 = AXIS2_PLACEMENT_3D ( 'NONE', #353, #100, #18 ) ;
#64 = CARTESIAN_POINT ( 'NONE',  ( 7.000000000001726619, 6.735557395310468647E-16, -5.500000000000020428 ) ) ;
#65 = PLANE ( 'NONE',  #157 ) ;
#66 = AXIS2_PLACEMENT_3D ( 'NONE', #340, #149, #256 ) ;
#67 = DIRECTION ( 'NONE',  ( 0.000000000000000000, 0.000000000000000000, 1.000000000000000000 ) ) ;
#68 = EDGE_CURVE ( 'NONE', #8, #146, #209, .T. ) ;
#69 = CC_DESIGN_DATE_AND_TIME_ASSIGNMENT ( #112, #59, ( #122 ) ) ;
#70 = LINE ( 'NONE', #262, #101 ) ;
#71 = CARTESIAN_POINT ( 'NONE',  ( 7.000000000001726619, 0.000000000000000000, 0.000000000000000000 ) ) ;
#72 = DIRECTION ( 'NONE',  ( 0.000000000000000000, 0.000000000000000000, 1.000000000000000000 ) ) ;
#73 = AXIS2_PLACEMENT_3D ( 'NONE', #298, #80, #179 ) ;
#74 = ORIENTED_EDGE ( 'NONE', *, *, #105, .F. ) ;
#75 = DIRECTION ( 'NONE',  ( 0.000000000000000000, 0.000000000000000000, 1.000000000000000000 ) ) ;
#76 = DIRECTION ( 'NONE',  ( -1.000000000000000000, -0.000000000000000000, -0.000000000000000000 ) ) ;
#77 = AXIS2_PLACEMENT_3D ( 'NONE', #232, #198, #177 ) ;
#78 = EDGE_CURVE ( 'NONE', #300, #196, #121, .T. ) ;
#79 = CC_DESIGN_PERSON_AND_ORGANIZATION_ASSIGNMENT ( #274, #3, ( #304 ) ) ;
#80 = DIRECTION ( 'NONE',  ( -1.000000000000000000, -0.000000000000000000, -0.000000000000000000 ) ) ;
#81 = APPROVAL_PERSON_ORGANIZATION ( #30, #182, #136 ) ;
#82 = EDGE_LOOP ( 'NONE', ( #47, #162, #34, #338 ) ) ;
#83 = ORIENTED_EDGE ( 'NONE', *, *, #106, .T. ) ;
#84 = AXIS2_PLACEMENT_3D ( 'NONE', #312, #38, #67 ) ;
#85 = EDGE_LOOP ( 'NONE', ( #227, #277, #253, #190 ) ) ;
#86 = VERTEX_POINT ( 'NONE', #148 ) ;
#87 = DATE_AND_TIME ( #337, #22 ) ;
#88 = CC_DESIGN_APPROVAL ( #205, ( #122 ) ) ;
#89 = EDGE_LOOP ( 'NONE', ( #7, #331, #140, #60 ) ) ;
#90 = VECTOR ( 'NONE', #137, 1000.000000000000000 ) ;
#91 = CARTESIAN_POINT ( 'NONE',  ( 7.000000000001726619, 0.000000000000000000, 0.000000000000000000 ) ) ;
#92 =( GEOMETRIC_REPRESENTATION_CONTEXT ( 3 ) GLOBAL_UNCERTAINTY_ASSIGNED_CONTEXT ( ( #347 ) ) GLOBAL_UNIT_ASSIGNED_CONTEXT ( ( #208, #289, #348 ) ) REPRESENTATION_CONTEXT ( 'NONE', 'WORKASPACE' ) );
#93 = LOCAL_TIME ( 7, 58, 22.00000000000000000, #355 ) ;
#94 = CARTESIAN_POINT ( 'NONE',  ( 7.000000000001726619, 0.000000000000000000, 5.500000000000020428 ) ) ;
#95 = DIRECTION ( 'NONE',  ( -0.000000000000000000, 0.000000000000000000, 1.000000000000000000 ) ) ;
#96 = CIRCLE ( 'NONE', #316, 8.000000000000019540 ) ;
#97 = CARTESIAN_POINT ( 'NONE',  ( 0.000000000000000000, 0.000000000000000000, 0.000000000000000000 ) ) ;
#98 = AXIS2_PLACEMENT_3D ( 'NONE', #104, #183, #126 ) ;
#99 = DIRECTION ( 'NONE',  ( -1.000000000000000000, -0.000000000000000000, -0.000000000000000000 ) ) ;
#100 = DIRECTION ( 'NONE',  ( -1.000000000000000000, -0.000000000000000000, -0.000000000000000000 ) ) ;
#101 = VECTOR ( 'NONE', #318, 1000.000000000000000 ) ;
#102 = DIRECTION ( 'NONE',  ( -1.000000000000000000, -0.000000000000000000, -0.000000000000000000 ) ) ;
#103 = LINE ( 'NONE', #19, #156 ) ;
#104 = CARTESIAN_POINT ( 'NONE',  ( 0.000000000000000000, 0.000000000000000000, 0.000000000000000000 ) ) ;
#105 = EDGE_CURVE ( 'NONE', #144, #196, #36, .T. ) ;
#106 = EDGE_CURVE ( 'NONE', #146, #188, #201, .T. ) ;
#107 = DIRECTION ( 'NONE',  ( 0.000000000000000000, 0.000000000000000000, 1.000000000000000000 ) ) ;
#108 = APPROVAL_DATE_TIME ( #87, #205 ) ;
#109 = ORIENTED_EDGE ( 'NONE', *, *, #240, .T. ) ;
#110 = SECURITY_CLASSIFICATION_LEVEL ( 'unclassified' ) ;
#111 = CARTESIAN_POINT ( 'NONE',  ( -3.000000000000002665, 0.000000000000000000, 0.000000000000000000 ) ) ;
#112 = DATE_AND_TIME ( #133, #324 ) ;
#113 = ORIENTED_EDGE ( 'NONE', *, *, #68, .F. ) ;
#114 = CALENDAR_DATE ( 2024, 23, 9 ) ;
#115 = ORIENTED_EDGE ( 'NONE', *, *, #259, .T. ) ;
#116 = PERSON ( 'UNSPECIFIED', 'UNSPECIFIED', 'UNSPECIFIED', ('UNSPECIFIED'), ('UNSPECIFIED'), ('UNSPECIFIED') ) ;
#117 = DIRECTION ( 'NONE',  ( 0.000000000000000000, 0.000000000000000000, 1.000000000000000000 ) ) ;
#118 = CARTESIAN_POINT ( 'NONE',  ( 7.000000000001726619, 0.000000000000000000, 0.000000000000000000 ) ) ;
#119 = AXIS2_PLACEMENT_3D ( 'NONE', #159, #21, #75 ) ;
#120 = DIRECTION ( 'NONE',  ( -0.7071067811865474617, 0.000000000000000000, 0.7071067811865474617 ) ) ;
#121 = LINE ( 'NONE', #284, #49 ) ;
#122 = SECURITY_CLASSIFICATION ( '', '', #110 ) ;
#123 = CARTESIAN_POINT ( 'NONE',  ( 6.000000000001726619, 0.000000000000000000, 6.500000000000021316 ) ) ;
#124 = CARTESIAN_POINT ( 'NONE',  ( -2.500000000000000888, 9.184850993605171610E-16, -7.500000000000017764 ) ) ;
#125 = DIRECTION ( 'NONE',  ( 0.000000000000000000, 0.000000000000000000, 1.000000000000000000 ) ) ;
#126 = DIRECTION ( 'NONE',  ( 0.000000000000000000, 0.000000000000000000, 1.000000000000000000 ) ) ;
#127 = VERTEX_POINT ( 'NONE', #207 ) ;
#128 = FACE_OUTER_BOUND ( 'NONE', #270, .T. ) ;
#129 = APPROVAL ( #55, 'UNSPECIFIED' ) ;
#130 = CARTESIAN_POINT ( 'NONE',  ( -2.500000000000000888, 0.000000000000000000, 0.000000000000000000 ) ) ;
#131 = CC_DESIGN_SECURITY_CLASSIFICATION ( #122, ( #304 ) ) ;
#132 = DIRECTION ( 'NONE',  ( 1.000000000000000000, 0.000000000000000000, 0.000000000000000000 ) ) ;
#133 = CALENDAR_DATE ( 2024, 23, 9 ) ;
#134 = EDGE_LOOP ( 'NONE', ( #62, #249, #74, #31 ) ) ;
#135 = AXIS2_PLACEMENT_3D ( 'NONE', #296, #102, #107 ) ;
#136 = APPROVAL_ROLE ( '' ) ;
#137 = DIRECTION ( 'NONE',  ( -1.000000000000000000, -0.000000000000000000, -0.000000000000000000 ) ) ;
#138 = APPROVAL_PERSON_ORGANIZATION ( #243, #205, #32 ) ;
#139 = APPROVAL_DATE_TIME ( #187, #182 ) ;
#140 = ORIENTED_EDGE ( 'NONE', *, *, #259, .F. ) ;
#141 = AXIS2_PLACEMENT_3D ( 'NONE', #352, #325, #20 ) ;
#142 = COORDINATED_UNIVERSAL_TIME_OFFSET ( 1, 0, .AHEAD. ) ;
#143 = ADVANCED_FACE ( 'NONE', ( #343, #231 ), #229, .F. ) ;
#144 = VERTEX_POINT ( 'NONE', #42 ) ;
#145 = AXIS2_PLACEMENT_3D ( 'NONE', #124, #291, #43 ) ;
#146 = VERTEX_POINT ( 'NONE', #94 ) ;
#147 = CARTESIAN_POINT ( 'NONE',  ( -3.000000000000002665, 0.000000000000000000, 7.500000000000017764 ) ) ;
#148 = CARTESIAN_POINT ( 'NONE',  ( 0.000000000000000000, 0.000000000000000000, 6.500000000000019540 ) ) ;
#149 = DIRECTION ( 'NONE',  ( -1.000000000000000000, -0.000000000000000000, -0.000000000000000000 ) ) ;
#150 = DESIGN_CONTEXT ( 'detailed design', #351, 'design' ) ;
#151 = CARTESIAN_POINT ( 'NONE',  ( -2.500000000000000888, 0.000000000000000000, 7.500000000000017764 ) ) ;
#152 = DIRECTION ( 'NONE',  ( 0.000000000000000000, -1.000000000000000000, 0.000000000000000000 ) ) ;
#153 = EDGE_CURVE ( 'NONE', #144, #58, #189, .T. ) ;
#154 = CIRCLE ( 'NONE', #199, 5.500000000000020428 ) ;
#155 = DIRECTION ( 'NONE',  ( -1.000000000000000000, -0.000000000000000000, -0.000000000000000000 ) ) ;
#156 = VECTOR ( 'NONE', #266, 1000.000000000000000 ) ;
#157 = AXIS2_PLACEMENT_3D ( 'NONE', #174, #263, #281 ) ;
#158 = DIRECTION ( 'NONE',  ( 0.000000000000000000, 0.000000000000000000, 1.000000000000000000 ) ) ;
#159 = CARTESIAN_POINT ( 'NONE',  ( -154.8395502972293230, 0.000000000000000000, 0.000000000000000000 ) ) ;
#160 = PERSON_AND_ORGANIZATION_ROLE ( 'classification_officer' ) ;
#161 = VECTOR ( 'NONE', #120, 1000.000000000000114 ) ;
#162 = ORIENTED_EDGE ( 'NONE', *, *, #267, .T. ) ;
#163 = PERSON_AND_ORGANIZATION ( #116, #213 ) ;
#164 = ORIENTED_EDGE ( 'NONE', *, *, #267, .F. ) ;
#165 = ORIENTED_EDGE ( 'NONE', *, *, #153, .T. ) ;
#166 = ADVANCED_FACE ( 'NONE', ( #171 ), #202, .T. ) ;
#167 = PERSON_AND_ORGANIZATION_ROLE ( 'design_owner' ) ;
#168 = ORIENTED_EDGE ( 'NONE', *, *, #313, .F. ) ;
#169 = ORIENTED_EDGE ( 'NONE', *, *, #313, .T. ) ;
#170 = CIRCLE ( 'NONE', #264, 7.500000000000017764 ) ;
#171 = FACE_OUTER_BOUND ( 'NONE', #89, .T. ) ;
#172 = CYLINDRICAL_SURFACE ( 'NONE', #66, 8.000000000000017764 ) ;
#173 = AXIS2_PLACEMENT_3D ( 'NONE', #71, #261, #280 ) ;
#174 = CARTESIAN_POINT ( 'NONE',  ( -3.000000000000000888, 7.500000000000017764, 0.000000000000000000 ) ) ;
#175 = LOCAL_TIME ( 7, 58, 22.00000000000000000, #27 ) ;
#176 = CARTESIAN_POINT ( 'NONE',  ( -2.500000000000002220, 9.797174393178845379E-16, -8.000000000000017764 ) ) ;
#177 = DIRECTION ( 'NONE',  ( 0.000000000000000000, 0.000000000000000000, 1.000000000000000000 ) ) ;
#178 = DIRECTION ( 'NONE',  ( -1.000000000000000000, -0.000000000000000000, -0.000000000000000000 ) ) ;
#179 = DIRECTION ( 'NONE',  ( 0.000000000000000000, 0.000000000000000000, 1.000000000000000000 ) ) ;
#180 = EDGE_CURVE ( 'NONE', #251, #300, #96, .T. ) ;
#181 = ORIENTED_EDGE ( 'NONE', *, *, #255, .T. ) ;
#182 = APPROVAL ( #335, 'UNSPECIFIED' ) ;
#183 = DIRECTION ( 'NONE',  ( -1.000000000000000000, -0.000000000000000000, -0.000000000000000000 ) ) ;
#184 = DIRECTION ( 'NONE',  ( 0.000000000000000000, 0.000000000000000000, 1.000000000000000000 ) ) ;
#185 = CARTESIAN_POINT ( 'NONE',  ( 0.000000000000000000, 0.000000000000000000, 8.000000000000019540 ) ) ;
#186 = ADVANCED_FACE ( 'NONE', ( #203 ), #65, .F. ) ;
#187 = DATE_AND_TIME ( #225, #206 ) ;
#188 = VERTEX_POINT ( 'NONE', #123 ) ;
#189 = CIRCLE ( 'NONE', #2, 0.4999999999999995559 ) ;
#190 = ORIENTED_EDGE ( 'NONE', *, *, #153, .F. ) ;
#191 = PERSON_AND_ORGANIZATION ( #116, #213 ) ;
#192 = DIRECTION ( 'NONE',  ( 0.000000000000000000, 0.000000000000000000, 1.000000000000000000 ) ) ;
#193 = EDGE_CURVE ( 'NONE', #292, #309, #70, .T. ) ;
#194 = CALENDAR_DATE ( 2024, 23, 9 ) ;
#195 = ORIENTED_EDGE ( 'NONE', *, *, #246, .F. ) ;
#196 = VERTEX_POINT ( 'NONE', #176 ) ;
#197 = ADVANCED_BREP_SHAPE_REPRESENTATION ( '3D_GR1382_DN16x1.5_18380295', ( #297, #345 ), #92 ) ;
#198 = DIRECTION ( 'NONE',  ( -1.000000000000000000, -0.000000000000000000, -0.000000000000000000 ) ) ;
#199 = AXIS2_PLACEMENT_3D ( 'NONE', #326, #155, #125 ) ;
#200 = AXIS2_PLACEMENT_3D ( 'NONE', #268, #178, #184 ) ;
#201 = LINE ( 'NONE', #286, #161 ) ;
#202 = CYLINDRICAL_SURFACE ( 'NONE', #84, 6.500000000000020428 ) ;
#203 = FACE_OUTER_BOUND ( 'NONE', #237, .T. ) ;
#204 = ADVANCED_FACE ( 'NONE', ( #233 ), #344, .T. ) ;
#205 = APPROVAL ( #61, 'UNSPECIFIED' ) ;
#206 = LOCAL_TIME ( 7, 58, 22.00000000000000000, #218 ) ;
#207 = CARTESIAN_POINT ( 'NONE',  ( -3.000000000000002665, 9.491012693392009481E-16, -7.500000000000017764 ) ) ;
#208 =( LENGTH_UNIT ( ) NAMED_UNIT ( * ) SI_UNIT ( .MILLI., .METRE. ) );
#209 = CIRCLE ( 'NONE', #173, 5.500000000000020428 ) ;
#210 = ADVANCED_FACE ( 'NONE', ( #37 ), #333, .T. ) ;
#211 = FACE_OUTER_BOUND ( 'NONE', #56, .T. ) ;
#212 = PRODUCT_DEFINITION ( 'UNKNOWN', '', #304, #150 ) ;
#213 = ORGANIZATION ( 'UNSPECIFIED', 'UNSPECIFIED', '' ) ;
#214 = CARTESIAN_POINT ( 'NONE',  ( -3.000000000000002665, 0.000000000000000000, 0.000000000000000000 ) ) ;
#215 = CARTESIAN_POINT ( 'NONE',  ( 6.000000000001726619, 7.960204194457822101E-16, -6.500000000000021316 ) ) ;
#216 = CARTESIAN_POINT ( 'NONE',  ( 0.000000000000000000, 7.960204194457820129E-16, -6.500000000000019540 ) ) ;
#217 = ADVANCED_FACE ( 'NONE', ( #211 ), #236, .F. ) ;
#218 = COORDINATED_UNIVERSAL_TIME_OFFSET ( 1, 0, .AHEAD. ) ;
#219 = EDGE_LOOP ( 'NONE', ( #115, #254 ) ) ;
#220 = CIRCLE ( 'NONE', #200, 8.000000000000019540 ) ;
#221 = EDGE_LOOP ( 'NONE', ( #169, #336, #244, #33 ) ) ;
#222 = PERSON_AND_ORGANIZATION ( #116, #213 ) ;
#223 = ADVANCED_FACE ( 'NONE', ( #128 ), #9, .T. ) ;
#224 = DIRECTION ( 'NONE',  ( -1.000000000000000000, -0.000000000000000000, -0.000000000000000000 ) ) ;
#225 = CALENDAR_DATE ( 2024, 23, 9 ) ;
#226 = EDGE_LOOP ( 'NONE', ( #302, #273, #109, #307 ) ) ;
#227 = ORIENTED_EDGE ( 'NONE', *, *, #105, .T. ) ;
#228 = DIRECTION ( 'NONE',  ( -0.7071067811865474617, 8.659560562354932858E-17, -0.7071067811865474617 ) ) ;
#229 = PLANE ( 'NONE',  #282 ) ;
#230 = CIRCLE ( 'NONE', #98, 6.500000000000019540 ) ;
#231 = FACE_BOUND ( 'NONE', #219, .T. ) ;
#232 = CARTESIAN_POINT ( 'NONE',  ( -2.500000000000002220, 0.000000000000000000, 0.000000000000000000 ) ) ;
#233 = FACE_OUTER_BOUND ( 'NONE', #134, .T. ) ;
#234 = DIRECTION ( 'NONE',  ( -1.000000000000000000, -0.000000000000000000, -0.000000000000000000 ) ) ;
#235 = AXIS2_PLACEMENT_3D ( 'NONE', #111, #224, #192 ) ;
#236 = PLANE ( 'NONE',  #141 ) ;
#237 = EDGE_LOOP ( 'NONE', ( #357, #181 ) ) ;
#238 = DIRECTION ( 'NONE',  ( 0.000000000000000000, 0.000000000000000000, 1.000000000000000000 ) ) ;
#239 = DIRECTION ( 'NONE',  ( -1.000000000000000000, -0.000000000000000000, -0.000000000000000000 ) ) ;
#240 = EDGE_CURVE ( 'NONE', #251, #144, #103, .T. ) ;
#241 = CLOSED_SHELL ( 'NONE', ( #294, #204, #166, #29, #217, #210, #276, #143, #39, #223, #186 ) ) ;
#242 = APPLICATION_PROTOCOL_DEFINITION ( 'international standard', 'config_control_design', 1994, #351 ) ;
#243 = PERSON_AND_ORGANIZATION ( #116, #213 ) ;
#244 = ORIENTED_EDGE ( 'NONE', *, *, #319, .F. ) ;
#245 = CIRCLE ( 'NONE', #63, 6.500000000000019540 ) ;
#246 = EDGE_CURVE ( 'NONE', #300, #251, #220, .T. ) ;
#247 = PRODUCT_RELATED_PRODUCT_CATEGORY ( 'detail', '', ( #52 ) ) ;
#248 = APPLICATION_PROTOCOL_DEFINITION ( 'international standard', 'config_control_design', 1994, #332 ) ;
#249 = ORIENTED_EDGE ( 'NONE', *, *, #78, .T. ) ;
#250 = PERSON_AND_ORGANIZATION_ROLE ( 'creator' ) ;
#251 = VERTEX_POINT ( 'NONE', #185 ) ;
#252 = DIRECTION ( 'NONE',  ( 0.000000000000000000, 0.000000000000000000, 1.000000000000000000 ) ) ;
#253 = ORIENTED_EDGE ( 'NONE', *, *, #14, .F. ) ;
#254 = ORIENTED_EDGE ( 'NONE', *, *, #283, .T. ) ;
#255 = EDGE_CURVE ( 'NONE', #127, #58, #170, .T. ) ;
#256 = DIRECTION ( 'NONE',  ( 0.000000000000000000, 0.000000000000000000, 1.000000000000000000 ) ) ;
#257 = AXIS2_PLACEMENT_3D ( 'NONE', #339, #287, #117 ) ;
#258 = FACE_OUTER_BOUND ( 'NONE', #226, .T. ) ;
#259 = EDGE_CURVE ( 'NONE', #86, #309, #245, .T. ) ;
#260 = CC_DESIGN_DATE_AND_TIME_ASSIGNMENT ( #303, #272, ( #212 ) ) ;
#261 = DIRECTION ( 'NONE',  ( -1.000000000000000000, -0.000000000000000000, -0.000000000000000000 ) ) ;
#262 = CARTESIAN_POINT ( 'NONE',  ( -154.8395502972293230, 7.960204194457820129E-16, -6.500000000000020428 ) ) ;
#263 = DIRECTION ( 'NONE',  ( 1.000000000000000000, 0.000000000000000000, 0.000000000000000000 ) ) ;
#264 = AXIS2_PLACEMENT_3D ( 'NONE', #214, #76, #238 ) ;
#265 = AXIS2_PLACEMENT_3D ( 'NONE', #118, #12, #40 ) ;
#266 = DIRECTION ( 'NONE',  ( -1.000000000000000000, -0.000000000000000000, -0.000000000000000000 ) ) ;
#267 = EDGE_CURVE ( 'NONE', #292, #188, #341, .T. ) ;
#268 = CARTESIAN_POINT ( 'NONE',  ( 0.000000000000000000, 0.000000000000000000, 0.000000000000000000 ) ) ;
#269 = APPROVAL_ROLE ( '' ) ;
#270 = EDGE_LOOP ( 'NONE', ( #349, #25, #165, #334 ) ) ;
#271 = LINE ( 'NONE', #28, #90 ) ;
#272 = DATE_TIME_ROLE ( 'creation_date' ) ;
#273 = ORIENTED_EDGE ( 'NONE', *, *, #246, .T. ) ;
#274 = PERSON_AND_ORGANIZATION ( #116, #213 ) ;
#275 = EDGE_LOOP ( 'NONE', ( #5, #329, #83, #164 ) ) ;
#276 = ADVANCED_FACE ( 'NONE', ( #321 ), #322, .T. ) ;
#277 = ORIENTED_EDGE ( 'NONE', *, *, #346, .T. ) ;
#278 = CC_DESIGN_PERSON_AND_ORGANIZATION_ASSIGNMENT ( #191, #6, ( #212 ) ) ;
#279 = CC_DESIGN_APPROVAL ( #182, ( #212 ) ) ;
#280 = DIRECTION ( 'NONE',  ( 0.000000000000000000, 0.000000000000000000, 1.000000000000000000 ) ) ;
#281 = DIRECTION ( 'NONE',  ( 0.000000000000000000, 0.000000000000000000, -1.000000000000000000 ) ) ;
#282 = AXIS2_PLACEMENT_3D ( 'NONE', #317, #342, #95 ) ;
#283 = EDGE_CURVE ( 'NONE', #309, #86, #230, .T. ) ;
#284 = CARTESIAN_POINT ( 'NONE',  ( -154.8395502972293230, 9.797174393178845379E-16, -8.000000000000017764 ) ) ;
#285 = APPROVAL_PERSON_ORGANIZATION ( #163, #129, #269 ) ;
#286 = CARTESIAN_POINT ( 'NONE',  ( 7.000000000001726619, 0.000000000000000000, 5.500000000000020428 ) ) ;
#287 = DIRECTION ( 'NONE',  ( -1.000000000000000000, -0.000000000000000000, -0.000000000000000000 ) ) ;
#288 = CIRCLE ( 'NONE', #235, 7.500000000000017764 ) ;
#289 =( NAMED_UNIT ( * ) PLANE_ANGLE_UNIT ( ) SI_UNIT ( $, .RADIAN. ) );
#290 = CIRCLE ( 'NONE', #73, 6.500000000000021316 ) ;
#291 = DIRECTION ( 'NONE',  ( -0.000000000000000000, 1.000000000000000000, 1.224646799147353207E-16 ) ) ;
#292 = VERTEX_POINT ( 'NONE', #215 ) ;
#293 = FACE_OUTER_BOUND ( 'NONE', #85, .T. ) ;
#294 = ADVANCED_FACE ( 'NONE', ( #293 ), #327, .T. ) ;
#295 = AXIS2_PLACEMENT_3D ( 'NONE', #91, #310, #158 ) ;
#296 = CARTESIAN_POINT ( 'NONE',  ( -2.500000000000000888, 0.000000000000000000, 0.000000000000000000 ) ) ;
#297 = MANIFOLD_SOLID_BREP ( 'Rotation1', #241 ) ;
#298 = CARTESIAN_POINT ( 'NONE',  ( 6.000000000001726619, 0.000000000000000000, 0.000000000000000000 ) ) ;
#299 = PERSON_AND_ORGANIZATION ( #116, #213 ) ;
#300 = VERTEX_POINT ( 'NONE', #354 ) ;
#301 = MECHANICAL_CONTEXT ( 'NONE', #332, 'mechanical' ) ;
#302 = ORIENTED_EDGE ( 'NONE', *, *, #78, .F. ) ;
#303 = DATE_AND_TIME ( #194, #93 ) ;
#304 = PRODUCT_DEFINITION_FORMATION_WITH_SPECIFIED_SOURCE ( 'ANY', '', #52, .NOT_KNOWN. ) ;
#305 = ORIENTED_EDGE ( 'NONE', *, *, #180, .F. ) ;
#306 = DATE_AND_TIME ( #114, #175 ) ;
#307 = ORIENTED_EDGE ( 'NONE', *, *, #323, .F. ) ;
#308 = PERSON_AND_ORGANIZATION ( #116, #213 ) ;
#309 = VERTEX_POINT ( 'NONE', #216 ) ;
#310 = DIRECTION ( 'NONE',  ( -1.000000000000000000, -0.000000000000000000, -0.000000000000000000 ) ) ;
#311 = AXIS2_PLACEMENT_3D ( 'NONE', #130, #239, #72 ) ;
#312 = CARTESIAN_POINT ( 'NONE',  ( -154.8395502972293230, 0.000000000000000000, 0.000000000000000000 ) ) ;
#313 = EDGE_CURVE ( 'NONE', #146, #8, #154, .T. ) ;
#314 = CC_DESIGN_PERSON_AND_ORGANIZATION_ASSIGNMENT ( #308, #250, ( #304 ) ) ;
#315 = DIRECTION ( 'NONE',  ( 0.000000000000000000, 0.000000000000000000, -1.000000000000000000 ) ) ;
#316 = AXIS2_PLACEMENT_3D ( 'NONE', #97, #99, #35 ) ;
#317 = CARTESIAN_POINT ( 'NONE',  ( -7.654042494670108595E-16, 6.500000000000019540, 0.000000000000000000 ) ) ;
#318 = DIRECTION ( 'NONE',  ( -1.000000000000000000, -0.000000000000000000, -0.000000000000000000 ) ) ;
#319 = EDGE_CURVE ( 'NONE', #188, #292, #290, .T. ) ;
#320 = VECTOR ( 'NONE', #228, 1000.000000000000114 ) ;
#321 = FACE_OUTER_BOUND ( 'NONE', #82, .T. ) ;
#322 = CYLINDRICAL_SURFACE ( 'NONE', #119, 6.500000000000020428 ) ;
#323 = EDGE_CURVE ( 'NONE', #196, #144, #356, .T. ) ;
#324 = LOCAL_TIME ( 7, 58, 22.00000000000000000, #24 ) ;
#325 = DIRECTION ( 'NONE',  ( -1.000000000000000000, 0.000000000000000000, -0.000000000000000000 ) ) ;
#326 = CARTESIAN_POINT ( 'NONE',  ( 7.000000000001726619, 0.000000000000000000, 0.000000000000000000 ) ) ;
#327 = TOROIDAL_SURFACE ( 'NONE', #311, 7.500000000000017764, 0.4999999999999997780 ) ;
#328 = CARTESIAN_POINT ( 'NONE',  ( 0.000000000000000000, 0.000000000000000000, 0.000000000000000000 ) ) ;
#329 = ORIENTED_EDGE ( 'NONE', *, *, #68, .T. ) ;
#330 = SHAPE_DEFINITION_REPRESENTATION ( #26, #197 ) ;
#331 = ORIENTED_EDGE ( 'NONE', *, *, #193, .T. ) ;
#332 = APPLICATION_CONTEXT ( 'configuration controlled 3d designs of mechanical parts and assemblies' ) ;
#333 = CONICAL_SURFACE ( 'NONE', #295, 5.500000000000020428, 0.7853981633974482790 ) ;
#334 = ORIENTED_EDGE ( 'NONE', *, *, #255, .F. ) ;
#335 = APPROVAL_STATUS ( 'not_yet_approved' ) ;
#336 = ORIENTED_EDGE ( 'NONE', *, *, #23, .T. ) ;
#337 = CALENDAR_DATE ( 2024, 23, 9 ) ;
#338 = ORIENTED_EDGE ( 'NONE', *, *, #283, .F. ) ;
#339 = CARTESIAN_POINT ( 'NONE',  ( -154.8395502972293230, 0.000000000000000000, 0.000000000000000000 ) ) ;
#340 = CARTESIAN_POINT ( 'NONE',  ( -154.8395502972293230, 0.000000000000000000, 0.000000000000000000 ) ) ;
#341 = CIRCLE ( 'NONE', #45, 6.500000000000021316 ) ;
#342 = DIRECTION ( 'NONE',  ( -1.000000000000000000, 0.000000000000000000, -0.000000000000000000 ) ) ;
#343 = FACE_OUTER_BOUND ( 'NONE', #54, .T. ) ;
#344 = CYLINDRICAL_SURFACE ( 'NONE', #257, 8.000000000000017764 ) ;
#345 = AXIS2_PLACEMENT_3D ( 'NONE', #328, #252, #132 ) ;
#346 = EDGE_CURVE ( 'NONE', #196, #127, #44, .T. ) ;
#347 = UNCERTAINTY_MEASURE_WITH_UNIT (LENGTH_MEASURE( 1.000000000000000082E-05 ), #208, 'distance_accuracy_value', 'NONE');
#348 =( NAMED_UNIT ( * ) SI_UNIT ( $, .STERADIAN. ) SOLID_ANGLE_UNIT ( ) );
#349 = ORIENTED_EDGE ( 'NONE', *, *, #346, .F. ) ;
#350 = CONICAL_SURFACE ( 'NONE', #265, 5.500000000000020428, 0.7853981633974482790 ) ;
#351 = APPLICATION_CONTEXT ( 'configuration controlled 3d designs of mechanical parts and assemblies' ) ;
#352 = CARTESIAN_POINT ( 'NONE',  ( 7.000000000000860645, 0.000000000000000000, 0.000000000000000000 ) ) ;
#353 = CARTESIAN_POINT ( 'NONE',  ( 0.000000000000000000, 0.000000000000000000, 0.000000000000000000 ) ) ;
#354 = CARTESIAN_POINT ( 'NONE',  ( 0.000000000000000000, 9.797174393178847351E-16, -8.000000000000019540 ) ) ;
#355 = COORDINATED_UNIVERSAL_TIME_OFFSET ( 1, 0, .AHEAD. ) ;
#356 = CIRCLE ( 'NONE', #17, 8.000000000000017764 ) ;
#357 = ORIENTED_EDGE ( 'NONE', *, *, #14, .T. ) ;
ENDSEC;
END-ISO-10303-21;
