ISO-10303-21;
HEADER;
FILE_DESCRIPTION (( 'STEP AP203' ),
    '1' );
FILE_NAME ('11-0216-09_outokumpu.step',
    '2015-08-11T14:14:22',
    ( '' ),
    ( '' ),
    'SwSTEP 2.0',
    'SolidWorks 2008',
    '' );
FILE_SCHEMA (( 'CONFIG_CONTROL_DESIGN' ));
ENDSEC;

DATA;
#1 = EDGE_LOOP ( 'NONE', ( #19, #144, #86, #12, #13, #11 ) ) ;
#2 = EDGE_CURVE ( 'NONE', #39, #10, #68, .T. ) ;
#3 = VERTEX_POINT ( 'NONE', #177 ) ;
#4 = ORIENTED_EDGE ( 'NONE', *, *, #32, .T. ) ;
#5 = ADVANCED_FACE ( 'NONE', ( #176 ), #174, .F. ) ;
#6 = ORIENTED_EDGE ( 'NONE', *, *, #109, .F. ) ;
#7 = EDGE_LOOP ( 'NONE', ( #6, #4, #76, #78, #142, #112 ) ) ;
#8 = EDGE_CURVE ( 'NONE', #15, #17, #170, .T. ) ;
#9 = ORIENTED_EDGE ( 'NONE', *, *, #22, .F. ) ;
#10 = VERTEX_POINT ( 'NONE', #166 ) ;
#11 = ORIENTED_EDGE ( 'NONE', *, *, #8, .F. ) ;
#12 = ORIENTED_EDGE ( 'NONE', *, *, #45, .F. ) ;
#13 = ORIENTED_EDGE ( 'NONE', *, *, #16, .F. ) ;
#14 = EDGE_CURVE ( 'NONE', #40, #3, #165, .T. ) ;
#15 = VERTEX_POINT ( 'NONE', #161 ) ;
#16 = EDGE_CURVE ( 'NONE', #17, #49, #160, .T. ) ;
#17 = VERTEX_POINT ( 'NONE', #155 ) ;
#18 = ADVANCED_FACE ( 'NONE', ( #154 ), #152, .F. ) ;
#19 = ORIENTED_EDGE ( 'NONE', *, *, #20, .T. ) ;
#20 = EDGE_CURVE ( 'NONE', #15, #41, #101, .T. ) ;
#21 = ORIENTED_EDGE ( 'NONE', *, *, #14, .T. ) ;
#22 = EDGE_CURVE ( 'NONE', #10, #3, #95, .T. ) ;
#23 = ORIENTED_EDGE ( 'NONE', *, *, #2, .F. ) ;
#24 = ORIENTED_EDGE ( 'NONE', *, *, #25, .T. ) ;
#25 = EDGE_CURVE ( 'NONE', #41, #43, #96, .T. ) ;
#26 = ORIENTED_EDGE ( 'NONE', *, *, #27, .T. ) ;
#27 = EDGE_CURVE ( 'NONE', #43, #42, #134, .T. ) ;
#28 = ORIENTED_EDGE ( 'NONE', *, *, #29, .F. ) ;
#29 = EDGE_CURVE ( 'NONE', #30, #42, #135, .T. ) ;
#30 = VERTEX_POINT ( 'NONE', #126 ) ;
#31 = ORIENTED_EDGE ( 'NONE', *, *, #32, .F. ) ;
#32 = EDGE_CURVE ( 'NONE', #44, #30, #124, .T. ) ;
#33 = ADVANCED_FACE ( 'NONE', ( #125 ), #118, .T. ) ;
#34 = ORIENTED_EDGE ( 'NONE', *, *, #35, .F. ) ;
#35 = EDGE_CURVE ( 'NONE', #41, #44, #207, .T. ) ;
#36 = EDGE_LOOP ( 'NONE', ( #37, #21, #9, #23 ) ) ;
#37 = ORIENTED_EDGE ( 'NONE', *, *, #38, .T. ) ;
#38 = EDGE_CURVE ( 'NONE', #39, #40, #199, .T. ) ;
#39 = VERTEX_POINT ( 'NONE', #194 ) ;
#40 = VERTEX_POINT ( 'NONE', #193 ) ;
#41 = VERTEX_POINT ( 'NONE', #192 ) ;
#42 = VERTEX_POINT ( 'NONE', #191 ) ;
#43 = VERTEX_POINT ( 'NONE', #190 ) ;
#44 = VERTEX_POINT ( 'NONE', #189 ) ;
#45 = EDGE_CURVE ( 'NONE', #49, #64, #187, .T. ) ;
#46 = ADVANCED_FACE ( 'NONE', ( #188 ), #181, .F. ) ;
#47 = ORIENTED_EDGE ( 'NONE', *, *, #45, .T. ) ;
#48 = EDGE_LOOP ( 'NONE', ( #34, #24, #26, #28, #31 ) ) ;
#49 = VERTEX_POINT ( 'NONE', #224 ) ;
#50 = VERTEX_POINT ( 'NONE', #221 ) ;
#51 = ORIENTED_EDGE ( 'NONE', *, *, #63, .F. ) ;
#52 = ORIENTED_EDGE ( 'NONE', *, *, #55, .F. ) ;
#53 = ORIENTED_EDGE ( 'NONE', *, *, #57, .T. ) ;
#54 = VERTEX_POINT ( 'NONE', #223 ) ;
#55 = EDGE_CURVE ( 'NONE', #56, #54, #256, .T. ) ;
#56 = VERTEX_POINT ( 'NONE', #240 ) ;
#57 = EDGE_CURVE ( 'NONE', #50, #54, #260, .T. ) ;
#58 = EDGE_CURVE ( 'NONE', #64, #50, #238, .T. ) ;
#59 = ORIENTED_EDGE ( 'NONE', *, *, #58, .T. ) ;
#60 = ADVANCED_FACE ( 'NONE', ( #239 ), #233, .F. ) ;
#61 = EDGE_LOOP ( 'NONE', ( #59, #53, #52, #51, #47 ) ) ;
#62 = MANIFOLD_SOLID_BREP ( 'NONE', #136 ) ;
#63 = EDGE_CURVE ( 'NONE', #49, #56, #266, .T. ) ;
#64 = VERTEX_POINT ( 'NONE', #262 ) ;
#65 = DIRECTION ( 'NONE',  ( -0.0000000000000000000, -0.0000000000000000000, 1.000000000000000000 ) ) ;
#66 = VECTOR ( 'NONE', #65, 1000.000000000000000 ) ;
#67 = CARTESIAN_POINT ( 'NONE',  ( 33.14999999999999900, 0.0000000000000000000, -4.336808689942017700E-016 ) ) ;
#68 = LINE ( 'NONE', #67, #66 ) ;
#69 = ORIENTED_EDGE ( 'NONE', *, *, #25, .F. ) ;
#70 = ORIENTED_EDGE ( 'NONE', *, *, #20, .F. ) ;
#71 = ORIENTED_EDGE ( 'NONE', *, *, #77, .F. ) ;
#72 = ORIENTED_EDGE ( 'NONE', *, *, #29, .T. ) ;
#73 = ORIENTED_EDGE ( 'NONE', *, *, #14, .F. ) ;
#74 = ORIENTED_EDGE ( 'NONE', *, *, #82, .T. ) ;
#75 = ORIENTED_EDGE ( 'NONE', *, *, #2, .T. ) ;
#76 = ORIENTED_EDGE ( 'NONE', *, *, #77, .T. ) ;
#77 = EDGE_CURVE ( 'NONE', #30, #15, #255, .T. ) ;
#78 = ORIENTED_EDGE ( 'NONE', *, *, #8, .T. ) ;
#79 = ORIENTED_EDGE ( 'NONE', *, *, #80, .T. ) ;
#80 = EDGE_CURVE ( 'NONE', #3, #10, #251, .T. ) ;
#81 = ORIENTED_EDGE ( 'NONE', *, *, #82, .F. ) ;
#82 = EDGE_CURVE ( 'NONE', #40, #39, #245, .T. ) ;
#83 = EDGE_LOOP ( 'NONE', ( #84, #87 ) ) ;
#84 = ORIENTED_EDGE ( 'NONE', *, *, #55, .T. ) ;
#85 = ADVANCED_FACE ( 'NONE', ( #246, #232 ), #231, .F. ) ;
#86 = ORIENTED_EDGE ( 'NONE', *, *, #109, .T. ) ;
#87 = ORIENTED_EDGE ( 'NONE', *, *, #88, .T. ) ;
#88 = EDGE_CURVE ( 'NONE', #54, #56, #225, .T. ) ;
#89 = DIRECTION ( 'NONE',  ( -0.7071067811865517900, 8.659274570719408400E-017, 0.7071067811865432400 ) ) ;
#90 = VECTOR ( 'NONE', #89, 1000.000000000000000 ) ;
#91 = CARTESIAN_POINT ( 'NONE',  ( -29.80699999999999900, 3.650184158838359400E-015, -1.040883376240310500 ) ) ;
#92 = DIRECTION ( 'NONE',  ( 1.000000000000000000, 0.0000000000000000000, 0.0000000000000000000 ) ) ;
#93 = DIRECTION ( 'NONE',  ( -0.0000000000000000000, -0.0000000000000000000, 1.000000000000000000 ) ) ;
#94 = AXIS2_PLACEMENT_3D ( 'NONE', #148, #93, #92 ) ;
#95 = CIRCLE ( 'NONE', #94, 33.14999999999999900 ) ;
#96 = LINE ( 'NONE', #91, #90 ) ;
#97 = DIRECTION ( 'NONE',  ( 1.000000000000000000, 0.0000000000000000000, 0.0000000000000000000 ) ) ;
#98 = DIRECTION ( 'NONE',  ( -0.0000000000000000000, -0.0000000000000000000, 1.000000000000000000 ) ) ;
#99 = CARTESIAN_POINT ( 'NONE',  ( 0.0000000000000000000, 0.0000000000000000000, -1.040883376240310500 ) ) ;
#100 = AXIS2_PLACEMENT_3D ( 'NONE', #99, #98, #97 ) ;
#101 = CIRCLE ( 'NONE', #100, 29.80699999999999900 ) ;
#102 = EDGE_LOOP ( 'NONE', ( #145, #147 ) ) ;
#103 = ORIENTED_EDGE ( 'NONE', *, *, #146, .T. ) ;
#104 = ADVANCED_FACE ( 'NONE', ( #217 ), #216, .F. ) ;
#105 = EDGE_LOOP ( 'NONE', ( #139, #140, #141, #107, #108 ) ) ;
#106 = ADVANCED_FACE ( 'NONE', ( #310 ), #278, .F. ) ;
#107 = ORIENTED_EDGE ( 'NONE', *, *, #63, .T. ) ;
#108 = ORIENTED_EDGE ( 'NONE', *, *, #88, .F. ) ;
#109 = EDGE_CURVE ( 'NONE', #44, #64, #303, .T. ) ;
#110 = ORIENTED_EDGE ( 'NONE', *, *, #22, .T. ) ;
#111 = EDGE_LOOP ( 'NONE', ( #110, #79 ) ) ;
#112 = ORIENTED_EDGE ( 'NONE', *, *, #58, .F. ) ;
#113 = ADVANCED_FACE ( 'NONE', ( #296, #295 ), #311, .F. ) ;
#114 = EDGE_LOOP ( 'NONE', ( #115, #81 ) ) ;
#115 = ORIENTED_EDGE ( 'NONE', *, *, #38, .F. ) ;
#116 = ADVANCED_FACE ( 'NONE', ( #312 ), #317, .T. ) ;
#117 = EDGE_LOOP ( 'NONE', ( #73, #74, #75, #137 ) ) ;
#118 = CYLINDRICAL_SURFACE ( 'NONE', #206, 33.14999999999999900 ) ;
#119 = CARTESIAN_POINT ( 'NONE',  ( 0.0000000000000000000, 0.0000000000000000000, -4.336808689942017700E-016 ) ) ;
#120 = DIRECTION ( 'NONE',  ( 1.000000000000000000, 0.0000000000000000000, 0.0000000000000000000 ) ) ;
#121 = DIRECTION ( 'NONE',  ( -0.0000000000000000000, -0.0000000000000000000, 1.000000000000000000 ) ) ;
#122 = CARTESIAN_POINT ( 'NONE',  ( 0.0000000000000000000, 0.0000000000000000000, -1.040883376240310500 ) ) ;
#123 = AXIS2_PLACEMENT_3D ( 'NONE', #122, #121, #120 ) ;
#124 = CIRCLE ( 'NONE', #123, 29.80699999999999900 ) ;
#125 = FACE_OUTER_BOUND ( 'NONE', #36, .T. ) ;
#126 = CARTESIAN_POINT ( 'NONE',  ( 29.80699999999999900, 0.0000000000000000000, -1.040883376240310500 ) ) ;
#127 = DIRECTION ( 'NONE',  ( 0.7071067811865517900, 0.0000000000000000000, 0.7071067811865432400 ) ) ;
#128 = VECTOR ( 'NONE', #127, 1000.000000000000000 ) ;
#129 = CARTESIAN_POINT ( 'NONE',  ( 29.80699999999999900, 0.0000000000000000000, -1.040883376240310500 ) ) ;
#130 = DIRECTION ( 'NONE',  ( 1.000000000000000000, 0.0000000000000000000, 0.0000000000000000000 ) ) ;
#131 = DIRECTION ( 'NONE',  ( -0.0000000000000000000, -0.0000000000000000000, 1.000000000000000000 ) ) ;
#132 = CARTESIAN_POINT ( 'NONE',  ( 0.0000000000000000000, 0.0000000000000000000, -3.304181524652116200E-019 ) ) ;
#133 = AXIS2_PLACEMENT_3D ( 'NONE', #132, #131, #130 ) ;
#134 = CIRCLE ( 'NONE', #133, 30.84788337624032200 ) ;
#135 = LINE ( 'NONE', #129, #128 ) ;
#136 = CLOSED_SHELL ( 'NONE', ( #60, #46, #33, #18, #5, #113, #85, #116, #106, #104 ) ) ;
#137 = ORIENTED_EDGE ( 'NONE', *, *, #80, .F. ) ;
#138 = EDGE_LOOP ( 'NONE', ( #69, #70, #71, #72, #103 ) ) ;
#139 = ORIENTED_EDGE ( 'NONE', *, *, #57, .F. ) ;
#140 = ORIENTED_EDGE ( 'NONE', *, *, #143, .T. ) ;
#141 = ORIENTED_EDGE ( 'NONE', *, *, #16, .T. ) ;
#142 = ORIENTED_EDGE ( 'NONE', *, *, #143, .F. ) ;
#143 = EDGE_CURVE ( 'NONE', #50, #17, #301, .T. ) ;
#144 = ORIENTED_EDGE ( 'NONE', *, *, #35, .T. ) ;
#145 = ORIENTED_EDGE ( 'NONE', *, *, #146, .F. ) ;
#146 = EDGE_CURVE ( 'NONE', #42, #43, #284, .T. ) ;
#147 = ORIENTED_EDGE ( 'NONE', *, *, #27, .F. ) ;
#148 = CARTESIAN_POINT ( 'NONE',  ( 0.0000000000000000000, 0.0000000000000000000, 0.0000000000000000000 ) ) ;
#149 = DIRECTION ( 'NONE',  ( 0.0000000000000000000, 1.000000000000000000, 2.327941055425648100E-016 ) ) ;
#150 = DIRECTION ( 'NONE',  ( -0.0000000000000000000, 2.470575658474184100E-016, -1.000000000000000000 ) ) ;
#151 = AXIS2_PLACEMENT_3D ( 'NONE', #153, #150, #149 ) ;
#152 = CYLINDRICAL_SURFACE ( 'NONE', #151, 29.80699999999999900 ) ;
#153 = CARTESIAN_POINT ( 'NONE',  ( 0.0000000000000000000, 1.224646799147362900E-015, -19.00000000000011400 ) ) ;
#154 = FACE_OUTER_BOUND ( 'NONE', #1, .T. ) ;
#155 = CARTESIAN_POINT ( 'NONE',  ( 0.0000000000000000000, 29.80699999999999900, -17.95911662375944900 ) ) ;
#156 = DIRECTION ( 'NONE',  ( 1.000000000000000000, 0.0000000000000000000, 0.0000000000000000000 ) ) ;
#157 = DIRECTION ( 'NONE',  ( -0.0000000000000000000, -0.0000000000000000000, 1.000000000000000000 ) ) ;
#158 = CARTESIAN_POINT ( 'NONE',  ( 0.0000000000000000000, 0.0000000000000000000, -17.95911662375944900 ) ) ;
#159 = AXIS2_PLACEMENT_3D ( 'NONE', #158, #157, #156 ) ;
#160 = CIRCLE ( 'NONE', #159, 29.80699999999999900 ) ;
#161 = CARTESIAN_POINT ( 'NONE',  ( 0.0000000000000000000, 29.80699999999999900, -1.040883376240310500 ) ) ;
#162 = DIRECTION ( 'NONE',  ( -0.0000000000000000000, -0.0000000000000000000, 1.000000000000000000 ) ) ;
#163 = VECTOR ( 'NONE', #162, 1000.000000000000000 ) ;
#164 = CARTESIAN_POINT ( 'NONE',  ( -33.14999999999999900, 4.059570062921180100E-015, -4.336808689942017700E-016 ) ) ;
#165 = LINE ( 'NONE', #164, #163 ) ;
#166 = CARTESIAN_POINT ( 'NONE',  ( 33.14999999999999900, 0.0000000000000000000, 0.0000000000000000000 ) ) ;
#167 = DIRECTION ( 'NONE',  ( -0.0000000000000000000, 2.470575658474184100E-016, -1.000000000000000000 ) ) ;
#168 = VECTOR ( 'NONE', #167, 1000.000000000000000 ) ;
#169 = CARTESIAN_POINT ( 'NONE',  ( 0.0000000000000000000, 29.80699999999999900, -19.00000000000010700 ) ) ;
#170 = LINE ( 'NONE', #169, #168 ) ;
#171 = DIRECTION ( 'NONE',  ( 0.0000000000000000000, 1.000000000000000000, 2.327941055425648100E-016 ) ) ;
#172 = DIRECTION ( 'NONE',  ( -0.0000000000000000000, 2.470575658474184100E-016, -1.000000000000000000 ) ) ;
#173 = AXIS2_PLACEMENT_3D ( 'NONE', #175, #172, #171 ) ;
#174 = CYLINDRICAL_SURFACE ( 'NONE', #173, 29.80699999999999900 ) ;
#175 = CARTESIAN_POINT ( 'NONE',  ( 0.0000000000000000000, 1.224646799147362900E-015, -19.00000000000011400 ) ) ;
#176 = FACE_OUTER_BOUND ( 'NONE', #7, .T. ) ;
#177 = CARTESIAN_POINT ( 'NONE',  ( -33.14999999999999900, 4.059570062921180100E-015, 0.0000000000000000000 ) ) ;
#178 = DIRECTION ( 'NONE',  ( 1.000000000000000000, 0.0000000000000000000, 0.0000000000000000000 ) ) ;
#179 = DIRECTION ( 'NONE',  ( -0.0000000000000000000, -0.0000000000000000000, 1.000000000000000000 ) ) ;
#180 = AXIS2_PLACEMENT_3D ( 'NONE', #182, #179, #178 ) ;
#181 = CONICAL_SURFACE ( 'NONE', #180, 29.80699999999999900, 0.7853981633974543900 ) ;
#182 = CARTESIAN_POINT ( 'NONE',  ( 0.0000000000000000000, 0.0000000000000000000, -1.040883376240310500 ) ) ;
#183 = DIRECTION ( 'NONE',  ( 1.000000000000000000, 0.0000000000000000000, 0.0000000000000000000 ) ) ;
#184 = DIRECTION ( 'NONE',  ( -0.0000000000000000000, -0.0000000000000000000, 1.000000000000000000 ) ) ;
#185 = CARTESIAN_POINT ( 'NONE',  ( 0.0000000000000000000, 0.0000000000000000000, -17.95911662375944900 ) ) ;
#186 = AXIS2_PLACEMENT_3D ( 'NONE', #185, #184, #183 ) ;
#187 = CIRCLE ( 'NONE', #186, 29.80699999999999900 ) ;
#188 = FACE_OUTER_BOUND ( 'NONE', #48, .T. ) ;
#189 = CARTESIAN_POINT ( 'NONE',  ( 3.650184158838359400E-015, -29.80699999999999900, -1.040883376240310500 ) ) ;
#190 = CARTESIAN_POINT ( 'NONE',  ( -30.84788337624032200, 3.777651398451559000E-015, -3.304181524652116200E-019 ) ) ;
#191 = CARTESIAN_POINT ( 'NONE',  ( 30.84788337624032200, 0.0000000000000000000, -3.304181524652116200E-019 ) ) ;
#192 = CARTESIAN_POINT ( 'NONE',  ( -29.80699999999999900, 3.713917778644959200E-015, -1.040883376240310500 ) ) ;
#193 = CARTESIAN_POINT ( 'NONE',  ( -33.14999999999999900, 4.059570062921180100E-015, -19.00000000000000400 ) ) ;
#194 = CARTESIAN_POINT ( 'NONE',  ( 33.14999999999999900, 0.0000000000000000000, -19.00000000000000400 ) ) ;
#195 = DIRECTION ( 'NONE',  ( 1.000000000000000000, 0.0000000000000000000, 0.0000000000000000000 ) ) ;
#196 = DIRECTION ( 'NONE',  ( -0.0000000000000000000, -0.0000000000000000000, 1.000000000000000000 ) ) ;
#197 = CARTESIAN_POINT ( 'NONE',  ( 0.0000000000000000000, 0.0000000000000000000, -19.00000000000000400 ) ) ;
#198 = AXIS2_PLACEMENT_3D ( 'NONE', #197, #196, #195 ) ;
#199 = CIRCLE ( 'NONE', #198, 33.14999999999999900 ) ;
#200 = DIRECTION ( 'NONE',  ( 1.000000000000000000, 0.0000000000000000000, 0.0000000000000000000 ) ) ;
#201 = DIRECTION ( 'NONE',  ( -0.0000000000000000000, -0.0000000000000000000, 1.000000000000000000 ) ) ;
#202 = CARTESIAN_POINT ( 'NONE',  ( 0.0000000000000000000, 0.0000000000000000000, -1.040883376240310500 ) ) ;
#203 = AXIS2_PLACEMENT_3D ( 'NONE', #202, #201, #200 ) ;
#204 = DIRECTION ( 'NONE',  ( 1.000000000000000000, 0.0000000000000000000, 0.0000000000000000000 ) ) ;
#205 = DIRECTION ( 'NONE',  ( -0.0000000000000000000, -0.0000000000000000000, 1.000000000000000000 ) ) ;
#206 = AXIS2_PLACEMENT_3D ( 'NONE', #119, #205, #204 ) ;
#207 = CIRCLE ( 'NONE', #203, 29.80699999999999900 ) ;
#208 = DIRECTION ( 'NONE',  ( -1.000000000000000000, 0.0000000000000000000, 0.0000000000000000000 ) ) ;
#209 = DIRECTION ( 'NONE',  ( 0.0000000000000000000, 0.0000000000000000000, -1.000000000000000000 ) ) ;
#210 = CARTESIAN_POINT ( 'NONE',  ( 0.0000000000000000000, 0.0000000000000000000, -19.00000000000000400 ) ) ;
#211 = AXIS2_PLACEMENT_3D ( 'NONE', #210, #209, #208 ) ;
#212 = DIRECTION ( 'NONE',  ( -1.000000000000000000, 0.0000000000000000000, 0.0000000000000000000 ) ) ;
#213 = DIRECTION ( 'NONE',  ( 0.0000000000000000000, 0.0000000000000000000, -1.000000000000000000 ) ) ;
#214 = CARTESIAN_POINT ( 'NONE',  ( 0.0000000000000000000, 0.0000000000000000000, -19.00000000000000400 ) ) ;
#215 = AXIS2_PLACEMENT_3D ( 'NONE', #214, #213, #212 ) ;
#216 = CONICAL_SURFACE ( 'NONE', #215, 30.84788337624056700, 0.7853981633974549400 ) ;
#217 = FACE_OUTER_BOUND ( 'NONE', #105, .T. ) ;
#218 = DIRECTION ( 'NONE',  ( 1.000000000000000000, 0.0000000000000000000, 0.0000000000000000000 ) ) ;
#219 = DIRECTION ( 'NONE',  ( -0.0000000000000000000, -0.0000000000000000000, 1.000000000000000000 ) ) ;
#220 = AXIS2_PLACEMENT_3D ( 'NONE', #230, #219, #218 ) ;
#221 = CARTESIAN_POINT ( 'NONE',  ( 29.80699999999999900, 3.713917778644974200E-015, -17.95911662375944900 ) ) ;
#222 = AXIS2_PLACEMENT_3D ( 'NONE', #268, #269, #267 ) ;
#223 = CARTESIAN_POINT ( 'NONE',  ( 30.84788337624056700, 3.777651398451588200E-015, -19.00000000000000400 ) ) ;
#224 = CARTESIAN_POINT ( 'NONE',  ( -29.80699999999999900, 0.0000000000000000000, -17.95911662375944900 ) ) ;
#225 = CIRCLE ( 'NONE', #220, 30.84788337624056700 ) ;
#226 = DIRECTION ( 'NONE',  ( -1.000000000000000000, 0.0000000000000000000, -0.0000000000000000000 ) ) ;
#227 = DIRECTION ( 'NONE',  ( 0.0000000000000000000, 0.0000000000000000000, -1.000000000000000000 ) ) ;
#228 = CARTESIAN_POINT ( 'NONE',  ( 0.0000000000000000000, 33.14999999999999900, -2.168404344971008900E-016 ) ) ;
#229 = AXIS2_PLACEMENT_3D ( 'NONE', #228, #227, #226 ) ;
#230 = CARTESIAN_POINT ( 'NONE',  ( 0.0000000000000000000, 0.0000000000000000000, -19.00000000000000400 ) ) ;
#231 = PLANE ( 'NONE',  #229 ) ;
#232 = FACE_BOUND ( 'NONE', #102, .T. ) ;
#233 = CONICAL_SURFACE ( 'NONE', #211, 30.84788337624056700, 0.7853981633974549400 ) ;
#234 = DIRECTION ( 'NONE',  ( 1.000000000000000000, 0.0000000000000000000, 0.0000000000000000000 ) ) ;
#235 = DIRECTION ( 'NONE',  ( -0.0000000000000000000, -0.0000000000000000000, 1.000000000000000000 ) ) ;
#236 = CARTESIAN_POINT ( 'NONE',  ( 0.0000000000000000000, 0.0000000000000000000, -17.95911662375944900 ) ) ;
#237 = AXIS2_PLACEMENT_3D ( 'NONE', #236, #235, #234 ) ;
#238 = CIRCLE ( 'NONE', #237, 29.80699999999999900 ) ;
#239 = FACE_OUTER_BOUND ( 'NONE', #61, .T. ) ;
#240 = CARTESIAN_POINT ( 'NONE',  ( -30.84788337624056700, 0.0000000000000000000, -19.00000000000000400 ) ) ;
#241 = DIRECTION ( 'NONE',  ( 1.000000000000000000, 0.0000000000000000000, 0.0000000000000000000 ) ) ;
#242 = DIRECTION ( 'NONE',  ( -0.0000000000000000000, -0.0000000000000000000, 1.000000000000000000 ) ) ;
#243 = CARTESIAN_POINT ( 'NONE',  ( 0.0000000000000000000, 0.0000000000000000000, -19.00000000000000400 ) ) ;
#244 = AXIS2_PLACEMENT_3D ( 'NONE', #243, #242, #241 ) ;
#245 = CIRCLE ( 'NONE', #244, 33.14999999999999900 ) ;
#246 = FACE_OUTER_BOUND ( 'NONE', #111, .T. ) ;
#247 = DIRECTION ( 'NONE',  ( 1.000000000000000000, 0.0000000000000000000, 0.0000000000000000000 ) ) ;
#248 = DIRECTION ( 'NONE',  ( -0.0000000000000000000, -0.0000000000000000000, 1.000000000000000000 ) ) ;
#249 = CARTESIAN_POINT ( 'NONE',  ( 0.0000000000000000000, 0.0000000000000000000, 0.0000000000000000000 ) ) ;
#250 = AXIS2_PLACEMENT_3D ( 'NONE', #249, #248, #247 ) ;
#251 = CIRCLE ( 'NONE', #250, 33.14999999999999900 ) ;
#252 = DIRECTION ( 'NONE',  ( 1.000000000000000000, 0.0000000000000000000, 0.0000000000000000000 ) ) ;
#253 = DIRECTION ( 'NONE',  ( -0.0000000000000000000, -0.0000000000000000000, 1.000000000000000000 ) ) ;
#254 = AXIS2_PLACEMENT_3D ( 'NONE', #261, #253, #252 ) ;
#255 = CIRCLE ( 'NONE', #254, 29.80699999999999900 ) ;
#256 = CIRCLE ( 'NONE', #222, 30.84788337624056700 ) ;
#257 = DIRECTION ( 'NONE',  ( 0.7071067811865522400, 8.659274570719413300E-017, -0.7071067811865428000 ) ) ;
#258 = VECTOR ( 'NONE', #257, 1000.000000000000000 ) ;
#259 = CARTESIAN_POINT ( 'NONE',  ( 30.84788337624056700, 3.777651398451588200E-015, -19.00000000000000400 ) ) ;
#260 = LINE ( 'NONE', #259, #258 ) ;
#261 = CARTESIAN_POINT ( 'NONE',  ( 0.0000000000000000000, 0.0000000000000000000, -1.040883376240310500 ) ) ;
#262 = CARTESIAN_POINT ( 'NONE',  ( 3.650184158838359400E-015, -29.80699999999999900, -17.95911662375944900 ) ) ;
#263 = DIRECTION ( 'NONE',  ( -0.7071067811865522400, 0.0000000000000000000, -0.7071067811865428000 ) ) ;
#264 = VECTOR ( 'NONE', #263, 1000.000000000000000 ) ;
#265 = CARTESIAN_POINT ( 'NONE',  ( -30.84788337624056700, 0.0000000000000000000, -19.00000000000000400 ) ) ;
#266 = LINE ( 'NONE', #265, #264 ) ;
#267 = DIRECTION ( 'NONE',  ( 1.000000000000000000, 0.0000000000000000000, 0.0000000000000000000 ) ) ;
#268 = CARTESIAN_POINT ( 'NONE',  ( 0.0000000000000000000, 0.0000000000000000000, -19.00000000000000400 ) ) ;
#269 = DIRECTION ( 'NONE',  ( -0.0000000000000000000, -0.0000000000000000000, 1.000000000000000000 ) ) ;
#270 = PERSON ( 'UNSPECIFIED', 'UNSPECIFIED', 'UNSPECIFIED', ('UNSPECIFIED'), ('UNSPECIFIED'), ('UNSPECIFIED') ) ;
#271 = PRODUCT ( '11-0216-09_outokumpu', '11-0216-09_outokumpu', '', ( #272 ) ) ;
#272 = MECHANICAL_CONTEXT ( 'NONE', #274, 'mechanical' ) ;
#273 = APPLICATION_PROTOCOL_DEFINITION ( 'international standard', 'config_control_design', 1994, #274 ) ;
#274 = APPLICATION_CONTEXT ( 'configuration controlled 3d designs of mechanical parts and assemblies' ) ;
#275 =( GEOMETRIC_REPRESENTATION_CONTEXT ( 3 ) GLOBAL_UNCERTAINTY_ASSIGNED_CONTEXT ( ( #276 ) ) GLOBAL_UNIT_ASSIGNED_CONTEXT ( ( #279, #305, #304 ) ) REPRESENTATION_CONTEXT ( 'NONE', 'WORKASPACE' ) );
#276 = UNCERTAINTY_MEASURE_WITH_UNIT (LENGTH_MEASURE( 1.000000000000000100E-005 ), #279, 'distance_accuracy_value', 'NONE');
#277 = AXIS2_PLACEMENT_3D ( 'NONE', #288, #294, #289 ) ;
#278 = CONICAL_SURFACE ( 'NONE', #277, 29.80699999999999900, 0.7853981633974543900 ) ;
#279 =( LENGTH_UNIT ( ) NAMED_UNIT ( * ) SI_UNIT ( .MILLI., .METRE. ) );
#280 = CARTESIAN_POINT ( 'NONE',  ( 0.0000000000000000000, 0.0000000000000000000, 0.0000000000000000000 ) ) ;
#281 = DIRECTION ( 'NONE',  ( 1.000000000000000000, 0.0000000000000000000, 0.0000000000000000000 ) ) ;
#282 = DIRECTION ( 'NONE',  ( -0.0000000000000000000, -0.0000000000000000000, 1.000000000000000000 ) ) ;
#283 = AXIS2_PLACEMENT_3D ( 'NONE', #302, #282, #281 ) ;
#284 = CIRCLE ( 'NONE', #283, 30.84788337624032200 ) ;
#285 = DIRECTION ( 'NONE',  ( -0.0000000000000000000, 2.470575658474184100E-016, -1.000000000000000000 ) ) ;
#286 = VECTOR ( 'NONE', #285, 1000.000000000000000 ) ;
#287 = CARTESIAN_POINT ( 'NONE',  ( 3.650184158838359400E-015, -29.80699999999999900, -19.00000000000012100 ) ) ;
#288 = CARTESIAN_POINT ( 'NONE',  ( 0.0000000000000000000, 0.0000000000000000000, -1.040883376240310500 ) ) ;
#289 = DIRECTION ( 'NONE',  ( 1.000000000000000000, 0.0000000000000000000, 0.0000000000000000000 ) ) ;
#290 = DIRECTION ( 'NONE',  ( 1.000000000000000000, 0.0000000000000000000, 0.0000000000000000000 ) ) ;
#291 = DIRECTION ( 'NONE',  ( 0.0000000000000000000, 0.0000000000000000000, 1.000000000000000000 ) ) ;
#292 = AXIS2_PLACEMENT_3D ( 'NONE', #280, #291, #290 ) ;
#293 = ADVANCED_BREP_SHAPE_REPRESENTATION ( '11-0216-09_outokumpu', ( #62, #292 ), #275 ) ;
#294 = DIRECTION ( 'NONE',  ( -0.0000000000000000000, -0.0000000000000000000, 1.000000000000000000 ) ) ;
#295 = FACE_BOUND ( 'NONE', #83, .T. ) ;
#296 = FACE_OUTER_BOUND ( 'NONE', #114, .T. ) ;
#297 = DIRECTION ( 'NONE',  ( 1.000000000000000000, 0.0000000000000000000, 0.0000000000000000000 ) ) ;
#298 = DIRECTION ( 'NONE',  ( -0.0000000000000000000, -0.0000000000000000000, 1.000000000000000000 ) ) ;
#299 = CARTESIAN_POINT ( 'NONE',  ( 0.0000000000000000000, 0.0000000000000000000, -17.95911662375944900 ) ) ;
#300 = AXIS2_PLACEMENT_3D ( 'NONE', #299, #298, #297 ) ;
#301 = CIRCLE ( 'NONE', #300, 29.80699999999999900 ) ;
#302 = CARTESIAN_POINT ( 'NONE',  ( 0.0000000000000000000, 0.0000000000000000000, -3.304181524652116200E-019 ) ) ;
#303 = LINE ( 'NONE', #287, #286 ) ;
#304 =( NAMED_UNIT ( * ) SI_UNIT ( $, .STERADIAN. ) SOLID_ANGLE_UNIT ( ) );
#305 =( NAMED_UNIT ( * ) PLANE_ANGLE_UNIT ( ) SI_UNIT ( $, .RADIAN. ) );
#306 = DIRECTION ( 'NONE',  ( 1.000000000000000000, 0.0000000000000000000, 0.0000000000000000000 ) ) ;
#307 = DIRECTION ( 'NONE',  ( 0.0000000000000000000, -0.0000000000000000000, 1.000000000000000000 ) ) ;
#308 = CARTESIAN_POINT ( 'NONE',  ( 0.0000000000000000000, 33.14999999999999900, -19.00000000000000400 ) ) ;
#309 = AXIS2_PLACEMENT_3D ( 'NONE', #308, #307, #306 ) ;
#310 = FACE_OUTER_BOUND ( 'NONE', #138, .T. ) ;
#311 = PLANE ( 'NONE',  #309 ) ;
#312 = FACE_OUTER_BOUND ( 'NONE', #117, .T. ) ;
#313 = DIRECTION ( 'NONE',  ( 1.000000000000000000, 0.0000000000000000000, 0.0000000000000000000 ) ) ;
#314 = DIRECTION ( 'NONE',  ( -0.0000000000000000000, -0.0000000000000000000, 1.000000000000000000 ) ) ;
#315 = CARTESIAN_POINT ( 'NONE',  ( 0.0000000000000000000, 0.0000000000000000000, -4.336808689942017700E-016 ) ) ;
#316 = AXIS2_PLACEMENT_3D ( 'NONE', #315, #314, #313 ) ;
#317 = CYLINDRICAL_SURFACE ( 'NONE', #316, 33.14999999999999900 ) ;
#318 = CALENDAR_DATE ( 2015, 11, 8 ) ;
#319 = LOCAL_TIME ( 16, 14, 22.00000000000000000, #353 ) ;
#320 = APPLICATION_CONTEXT ( 'configuration controlled 3d designs of mechanical parts and assemblies' ) ;
#321 = SHAPE_DEFINITION_REPRESENTATION ( #333, #293 ) ;
#322 = PERSON_AND_ORGANIZATION ( #270, #355 ) ;
#323 = CC_DESIGN_PERSON_AND_ORGANIZATION_ASSIGNMENT ( #325, #324, ( #361 ) ) ;
#324 = PERSON_AND_ORGANIZATION_ROLE ( 'creator' ) ;
#325 = PERSON_AND_ORGANIZATION ( #270, #355 ) ;
#326 = CC_DESIGN_APPROVAL ( #358, ( #361 ) ) ;
#327 = APPROVAL_DATE_TIME ( #328, #358 ) ;
#328 = DATE_AND_TIME ( #329, #330 ) ;
#329 = CALENDAR_DATE ( 2015, 11, 8 ) ;
#330 = LOCAL_TIME ( 16, 14, 22.00000000000000000, #331 ) ;
#331 = COORDINATED_UNIVERSAL_TIME_OFFSET ( 1, 0, .AHEAD. ) ;
#332 = APPROVAL_STATUS ( 'not_yet_approved' ) ;
#333 = PRODUCT_DEFINITION_SHAPE ( 'NONE', 'NONE',  #352 ) ;
#334 = PRODUCT_RELATED_PRODUCT_CATEGORY ( 'detail', '', ( #271 ) ) ;
#335 = CC_DESIGN_SECURITY_CLASSIFICATION ( #384, ( #361 ) ) ;
#336 = CC_DESIGN_APPROVAL ( #344, ( #384 ) ) ;
#337 = APPROVAL_DATE_TIME ( #338, #344 ) ;
#338 = DATE_AND_TIME ( #339, #340 ) ;
#339 = CALENDAR_DATE ( 2015, 11, 8 ) ;
#340 = LOCAL_TIME ( 16, 14, 22.00000000000000000, #341 ) ;
#341 = COORDINATED_UNIVERSAL_TIME_OFFSET ( 1, 0, .AHEAD. ) ;
#342 = APPROVAL_PERSON_ORGANIZATION ( #346, #344, #343 ) ;
#343 = APPROVAL_ROLE ( '' ) ;
#344 = APPROVAL ( #345, 'UNSPECIFIED' ) ;
#345 = APPROVAL_STATUS ( 'not_yet_approved' ) ;
#346 = PERSON_AND_ORGANIZATION ( #270, #355 ) ;
#347 = CC_DESIGN_DATE_AND_TIME_ASSIGNMENT ( #349, #348, ( #384 ) ) ;
#348 = DATE_TIME_ROLE ( 'classification_date' ) ;
#349 = DATE_AND_TIME ( #378, #379 ) ;
#350 = CC_DESIGN_PERSON_AND_ORGANIZATION_ASSIGNMENT ( #322, #368, ( #271 ) ) ;
#351 = DESIGN_CONTEXT ( 'detailed design', #320, 'design' ) ;
#352 = PRODUCT_DEFINITION ( 'UNKNOWN', '', #361, #351 ) ;
#353 = COORDINATED_UNIVERSAL_TIME_OFFSET ( 1, 0, .AHEAD. ) ;
#354 = APPROVAL_PERSON_ORGANIZATION ( #377, #370, #369 ) ;
#355 = ORGANIZATION ( 'UNSPECIFIED', 'UNSPECIFIED', '' ) ;
#356 = APPROVAL_PERSON_ORGANIZATION ( #360, #358, #357 ) ;
#357 = APPROVAL_ROLE ( '' ) ;
#358 = APPROVAL ( #359, 'UNSPECIFIED' ) ;
#359 = APPROVAL_STATUS ( 'not_yet_approved' ) ;
#360 = PERSON_AND_ORGANIZATION ( #270, #355 ) ;
#361 = PRODUCT_DEFINITION_FORMATION_WITH_SPECIFIED_SOURCE ( 'ANY', '', #271, .NOT_KNOWN. ) ;
#362 = CC_DESIGN_DATE_AND_TIME_ASSIGNMENT ( #364, #363, ( #352 ) ) ;
#363 = DATE_TIME_ROLE ( 'creation_date' ) ;
#364 = DATE_AND_TIME ( #371, #372 ) ;
#365 = CC_DESIGN_APPROVAL ( #370, ( #352 ) ) ;
#366 = APPROVAL_DATE_TIME ( #367, #370 ) ;
#367 = DATE_AND_TIME ( #318, #319 ) ;
#368 = PERSON_AND_ORGANIZATION_ROLE ( 'design_owner' ) ;
#369 = APPROVAL_ROLE ( '' ) ;
#370 = APPROVAL ( #332, 'UNSPECIFIED' ) ;
#371 = CALENDAR_DATE ( 2015, 11, 8 ) ;
#372 = LOCAL_TIME ( 16, 14, 22.00000000000000000, #373 ) ;
#373 = COORDINATED_UNIVERSAL_TIME_OFFSET ( 1, 0, .AHEAD. ) ;
#374 = CC_DESIGN_PERSON_AND_ORGANIZATION_ASSIGNMENT ( #376, #375, ( #352 ) ) ;
#375 = PERSON_AND_ORGANIZATION_ROLE ( 'creator' ) ;
#376 = PERSON_AND_ORGANIZATION ( #270, #355 ) ;
#377 = PERSON_AND_ORGANIZATION ( #270, #355 ) ;
#378 = CALENDAR_DATE ( 2015, 11, 8 ) ;
#379 = LOCAL_TIME ( 16, 14, 22.00000000000000000, #380 ) ;
#380 = COORDINATED_UNIVERSAL_TIME_OFFSET ( 1, 0, .AHEAD. ) ;
#381 = CC_DESIGN_PERSON_AND_ORGANIZATION_ASSIGNMENT ( #383, #382, ( #384 ) ) ;
#382 = PERSON_AND_ORGANIZATION_ROLE ( 'classification_officer' ) ;
#383 = PERSON_AND_ORGANIZATION ( #270, #355 ) ;
#384 = SECURITY_CLASSIFICATION ( '', '', #385 ) ;
#385 = SECURITY_CLASSIFICATION_LEVEL ( 'unclassified' ) ;
#386 = CC_DESIGN_PERSON_AND_ORGANIZATION_ASSIGNMENT ( #388, #387, ( #361 ) ) ;
#387 = PERSON_AND_ORGANIZATION_ROLE ( 'design_supplier' ) ;
#388 = PERSON_AND_ORGANIZATION ( #270, #355 ) ;
#389 = APPLICATION_PROTOCOL_DEFINITION ( 'international standard', 'config_control_design', 1994, #320 ) ;
ENDSEC;
END-ISO-10303-21;
