ISO-10303-21;
HEADER;
FILE_DESCRIPTION (( 'STEP AP203' ),
    '1' );
FILE_NAME ('3D_GR1392_DN25x1.5_18380106.STEP',
    '2024-09-21T10:13:19',
    ( '' ),
    ( '' ),
    'SwSTEP 2.0',
    'SolidWorks 2024',
    '' );
FILE_SCHEMA (( 'CONFIG_CONTROL_DESIGN' ));
ENDSEC;

DATA;
#1 = DATE_AND_TIME ( #27, #265 ) ;
#2 = ORIENTED_EDGE ( 'NONE', *, *, #233, .T. ) ;
#3 = CIRCLE ( 'NONE', #244, 10.00000000000001954 ) ;
#4 = DATE_AND_TIME ( #58, #170 ) ;
#5 = DIRECTION ( 'NONE',  ( -1.000000000000000000, -0.000000000000000000, -0.000000000000000000 ) ) ;
#6 = SHAPE_DEFINITION_REPRESENTATION ( #272, #135 ) ;
#7 = DIRECTION ( 'NONE',  ( 0.000000000000000000, 0.000000000000000000, 1.000000000000000000 ) ) ;
#8 = DIRECTION ( 'NONE',  ( -1.000000000000000000, -0.000000000000000000, -0.000000000000000000 ) ) ;
#9 = ORIENTED_EDGE ( 'NONE', *, *, #262, .F. ) ;
#10 = CC_DESIGN_SECURITY_CLASSIFICATION ( #124, ( #16 ) ) ;
#11 = DIRECTION ( 'NONE',  ( 0.000000000000000000, 0.000000000000000000, 1.000000000000000000 ) ) ;
#12 = DIRECTION ( 'NONE',  ( 0.000000000000000000, 0.000000000000000000, 1.000000000000000000 ) ) ;
#13 = DIRECTION ( 'NONE',  ( 0.000000000000000000, 1.000000000000000000, 1.224646799147352961E-16 ) ) ;
#14 = ORIENTED_EDGE ( 'NONE', *, *, #207, .F. ) ;
#15 = EDGE_CURVE ( 'NONE', #167, #90, #23, .T. ) ;
#16 = PRODUCT_DEFINITION_FORMATION_WITH_SPECIFIED_SOURCE ( 'ANY', '', #132, .NOT_KNOWN. ) ;
#17 = CARTESIAN_POINT ( 'NONE',  ( 11.12499999999996447, -8.673617379884035472E-16, 0.000000000000000000 ) ) ;
#18 = DIRECTION ( 'NONE',  ( -1.000000000000000000, -0.000000000000000000, -0.000000000000000000 ) ) ;
#19 = EDGE_CURVE ( 'NONE', #198, #64, #331, .T. ) ;
#20 = FACE_OUTER_BOUND ( 'NONE', #115, .T. ) ;
#21 = DIRECTION ( 'NONE',  ( -0.7071067811865469066, 8.659560562354941486E-17, -0.7071067811865482389 ) ) ;
#22 = AXIS2_PLACEMENT_3D ( 'NONE', #332, #66, #11 ) ;
#23 = CIRCLE ( 'NONE', #197, 11.00000000000002132 ) ;
#24 = CC_DESIGN_APPROVAL ( #63, ( #124 ) ) ;
#25 = APPROVAL_DATE_TIME ( #1, #121 ) ;
#26 = CC_DESIGN_DATE_AND_TIME_ASSIGNMENT ( #220, #305, ( #124 ) ) ;
#27 = CALENDAR_DATE ( 2024, 21, 9 ) ;
#28 = CIRCLE ( 'NONE', #192, 10.00000000000001954 ) ;
#29 = CALENDAR_DATE ( 2024, 21, 9 ) ;
#30 = ORIENTED_EDGE ( 'NONE', *, *, #262, .T. ) ;
#31 = PRODUCT_DEFINITION ( 'UNKNOWN', '', #16, #99 ) ;
#32 = ORIENTED_EDGE ( 'NONE', *, *, #229, .F. ) ;
#33 = ORIENTED_EDGE ( 'NONE', *, *, #15, .T. ) ;
#34 = PLANE ( 'NONE',  #150 ) ;
#35 = ORIENTED_EDGE ( 'NONE', *, *, #182, .T. ) ;
#36 = DIRECTION ( 'NONE',  ( -1.000000000000000000, -0.000000000000000000, -0.000000000000000000 ) ) ;
#37 = ORIENTED_EDGE ( 'NONE', *, *, #292, .T. ) ;
#38 = EDGE_CURVE ( 'NONE', #149, #136, #253, .T. ) ;
#39 = CARTESIAN_POINT ( 'NONE',  ( -2.000000000000001776, 0.000000000000000000, 0.000000000000000000 ) ) ;
#40 = VERTEX_POINT ( 'NONE', #284 ) ;
#41 = AXIS2_PLACEMENT_3D ( 'NONE', #300, #137, #52 ) ;
#42 = CARTESIAN_POINT ( 'NONE',  ( -2.000000000000001776, 0.000000000000000000, 12.50000000000001776 ) ) ;
#43 = CARTESIAN_POINT ( 'NONE',  ( 11.12499999999996447, -8.673617379884035472E-16, 0.000000000000000000 ) ) ;
#44 = CC_DESIGN_DATE_AND_TIME_ASSIGNMENT ( #267, #271, ( #31 ) ) ;
#45 = VERTEX_POINT ( 'NONE', #122 ) ;
#46 = DIRECTION ( 'NONE',  ( 0.000000000000000000, 1.000000000000000000, 0.000000000000000000 ) ) ;
#47 = CIRCLE ( 'NONE', #55, 12.50000000000001954 ) ;
#48 = DIRECTION ( 'NONE',  ( -1.000000000000000000, -0.000000000000000000, -0.000000000000000000 ) ) ;
#49 = LINE ( 'NONE', #125, #107 ) ;
#50 = CARTESIAN_POINT ( 'NONE',  ( -154.8395502972293230, 0.000000000000000000, 0.000000000000000000 ) ) ;
#51 = AXIS2_PLACEMENT_3D ( 'NONE', #50, #123, #320 ) ;
#52 = DIRECTION ( 'NONE',  ( 0.000000000000000000, 0.000000000000000000, 1.000000000000000000 ) ) ;
#53 = DIRECTION ( 'NONE',  ( 1.000000000000000000, 0.000000000000000000, 0.000000000000000000 ) ) ;
#54 = ORIENTED_EDGE ( 'NONE', *, *, #350, .F. ) ;
#55 = AXIS2_PLACEMENT_3D ( 'NONE', #251, #118, #247 ) ;
#56 = EDGE_CURVE ( 'NONE', #64, #149, #100, .T. ) ;
#57 = ORIENTED_EDGE ( 'NONE', *, *, #19, .T. ) ;
#58 = CALENDAR_DATE ( 2024, 21, 9 ) ;
#59 = LINE ( 'NONE', #169, #101 ) ;
#60 = EDGE_LOOP ( 'NONE', ( #37, #313, #196, #111 ) ) ;
#61 = AXIS2_PLACEMENT_3D ( 'NONE', #318, #343, #13 ) ;
#62 = ORIENTED_EDGE ( 'NONE', *, *, #126, .F. ) ;
#63 = APPROVAL ( #145, 'UNSPECIFIED' ) ;
#64 = VERTEX_POINT ( 'NONE', #329 ) ;
#65 = DIRECTION ( 'NONE',  ( 0.000000000000000000, 0.000000000000000000, 1.000000000000000000 ) ) ;
#66 = DIRECTION ( 'NONE',  ( -1.000000000000000000, -0.000000000000000000, -0.000000000000000000 ) ) ;
#67 = LOCAL_TIME ( 12, 13, 19.00000000000000000, #215 ) ;
#68 = ADVANCED_FACE ( 'NONE', ( #85 ), #34, .F. ) ;
#69 = FACE_OUTER_BOUND ( 'NONE', #119, .T. ) ;
#70 = ORIENTED_EDGE ( 'NONE', *, *, #214, .F. ) ;
#71 = CARTESIAN_POINT ( 'NONE',  ( 11.12499999999996447, -8.673617379884035472E-16, 0.000000000000000000 ) ) ;
#72 = CARTESIAN_POINT ( 'NONE',  ( -2.000000000000001776, 1.530808498934193691E-15, -12.50000000000001776 ) ) ;
#73 = AXIS2_PLACEMENT_3D ( 'NONE', #71, #260, #208 ) ;
#74 = DIRECTION ( 'NONE',  ( -1.000000000000000000, -0.000000000000000000, -0.000000000000000000 ) ) ;
#75 = DIRECTION ( 'NONE',  ( -0.000000000000000000, 0.000000000000000000, -1.000000000000000000 ) ) ;
#76 = FACE_OUTER_BOUND ( 'NONE', #337, .T. ) ;
#77 = EDGE_CURVE ( 'NONE', #311, #40, #345, .T. ) ;
#78 = PERSON_AND_ORGANIZATION ( #105, #79 ) ;
#79 = ORGANIZATION ( 'UNSPECIFIED', 'UNSPECIFIED', '' ) ;
#80 = MECHANICAL_CONTEXT ( 'NONE', #127, 'mechanical' ) ;
#81 = EDGE_LOOP ( 'NONE', ( #108, #30, #175, #245 ) ) ;
#82 = EDGE_LOOP ( 'NONE', ( #9, #33, #172, #268 ) ) ;
#83 = CONICAL_SURFACE ( 'NONE', #225, 10.00000000000001954, 0.7853981633974491672 ) ;
#84 = APPROVAL_STATUS ( 'not_yet_approved' ) ;
#85 = FACE_OUTER_BOUND ( 'NONE', #257, .T. ) ;
#86 = VERTEX_POINT ( 'NONE', #204 ) ;
#87 = ADVANCED_FACE ( 'NONE', ( #177 ), #221, .T. ) ;
#88 = CIRCLE ( 'NONE', #41, 12.50000000000001776 ) ;
#89 = DIRECTION ( 'NONE',  ( 0.000000000000000000, 0.000000000000000000, 1.000000000000000000 ) ) ;
#90 = VERTEX_POINT ( 'NONE', #174 ) ;
#91 = CARTESIAN_POINT ( 'NONE',  ( -8.532292771510108485E-15, 11.00000000000001954, 0.000000000000000000 ) ) ;
#92 = ORIENTED_EDGE ( 'NONE', *, *, #38, .F. ) ;
#93 = DIRECTION ( 'NONE',  ( -0.000000000000000000, 0.000000000000000000, 1.000000000000000000 ) ) ;
#94 = AXIS2_PLACEMENT_3D ( 'NONE', #95, #263, #258 ) ;
#95 = CARTESIAN_POINT ( 'NONE',  ( -154.8395502972293230, 0.000000000000000000, 0.000000000000000000 ) ) ;
#96 = CARTESIAN_POINT ( 'NONE',  ( -7.000000000000023981, 2.424744237388845711E-16, 0.000000000000000000 ) ) ;
#97 = CARTESIAN_POINT ( 'NONE',  ( 7.999999999999979572, 0.000000000000000000, 0.000000000000000000 ) ) ;
#98 = EDGE_CURVE ( 'NONE', #86, #274, #112, .T. ) ;
#99 = DESIGN_CONTEXT ( 'detailed design', #162, 'design' ) ;
#100 = CIRCLE ( 'NONE', #301, 12.50000000000001776 ) ;
#101 = VECTOR ( 'NONE', #287, 1000.000000000000000 ) ;
#102 = DIRECTION ( 'NONE',  ( 0.000000000000000000, 0.000000000000000000, 1.000000000000000000 ) ) ;
#103 = CARTESIAN_POINT ( 'NONE',  ( -2.775557561562891351E-14, 0.000000000000000000, 0.000000000000000000 ) ) ;
#104 = APPLICATION_PROTOCOL_DEFINITION ( 'international standard', 'config_control_design', 1994, #162 ) ;
#105 = PERSON ( 'UNSPECIFIED', 'UNSPECIFIED', 'UNSPECIFIED', ('UNSPECIFIED'), ('UNSPECIFIED'), ('UNSPECIFIED') ) ;
#106 = PERSON_AND_ORGANIZATION ( #105, #79 ) ;
#107 = VECTOR ( 'NONE', #157, 1000.000000000000000 ) ;
#108 = ORIENTED_EDGE ( 'NONE', *, *, #283, .T. ) ;
#109 = APPROVAL_ROLE ( '' ) ;
#110 = PERSON_AND_ORGANIZATION ( #105, #79 ) ;
#111 = ORIENTED_EDGE ( 'NONE', *, *, #182, .F. ) ;
#112 = CIRCLE ( 'NONE', #151, 12.50000000000001954 ) ;
#113 = AXIS2_PLACEMENT_3D ( 'NONE', #17, #75, #46 ) ;
#114 = CARTESIAN_POINT ( 'NONE',  ( -2.000000000000001776, 0.000000000000000000, 0.000000000000000000 ) ) ;
#115 = EDGE_LOOP ( 'NONE', ( #288, #57, #2, #14 ) ) ;
#116 = CARTESIAN_POINT ( 'NONE',  ( -2.000000000000001776, 0.000000000000000000, 0.000000000000000000 ) ) ;
#117 = ORIENTED_EDGE ( 'NONE', *, *, #233, .F. ) ;
#118 = DIRECTION ( 'NONE',  ( -1.000000000000000000, -0.000000000000000000, -0.000000000000000000 ) ) ;
#119 = EDGE_LOOP ( 'NONE', ( #216, #62 ) ) ;
#120 = DIRECTION ( 'NONE',  ( -1.000000000000000000, -0.000000000000000000, -0.000000000000000000 ) ) ;
#121 = APPROVAL ( #84, 'UNSPECIFIED' ) ;
#122 = CARTESIAN_POINT ( 'NONE',  ( 7.999999999999979572, 0.000000000000000000, 10.00000000000001954 ) ) ;
#123 = DIRECTION ( 'NONE',  ( -1.000000000000000000, -0.000000000000000000, -0.000000000000000000 ) ) ;
#124 = SECURITY_CLASSIFICATION ( '', '', #143 ) ;
#125 = CARTESIAN_POINT ( 'NONE',  ( -154.8395502972293230, 1.347111479062090968E-15, -11.00000000000001954 ) ) ;
#126 = EDGE_CURVE ( 'NONE', #274, #86, #47, .T. ) ;
#127 = APPLICATION_CONTEXT ( 'configuration controlled 3d designs of mechanical parts and assemblies' ) ;
#128 = DIRECTION ( 'NONE',  ( 0.000000000000000000, 0.000000000000000000, 1.000000000000000000 ) ) ;
#129 = LINE ( 'NONE', #235, #276 ) ;
#130 = CC_DESIGN_APPROVAL ( #121, ( #31 ) ) ;
#131 = LINE ( 'NONE', #210, #141 ) ;
#132 = PRODUCT ( '3D_GR1392_DN25x1.5_18380106', '3D_GR1392_DN25x1.5_18380106', '', ( #80 ) ) ;
#133 =( NAMED_UNIT ( * ) SI_UNIT ( $, .STERADIAN. ) SOLID_ANGLE_UNIT ( ) );
#134 = CALENDAR_DATE ( 2024, 21, 9 ) ;
#135 = ADVANCED_BREP_SHAPE_REPRESENTATION ( '3D_GR1392_DN25x1.5_18380106', ( #321, #328 ), #285 ) ;
#136 = VERTEX_POINT ( 'NONE', #315 ) ;
#137 = DIRECTION ( 'NONE',  ( -1.000000000000000000, -0.000000000000000000, -0.000000000000000000 ) ) ;
#138 = ORIENTED_EDGE ( 'NONE', *, *, #346, .F. ) ;
#139 = APPROVAL_DATE_TIME ( #4, #63 ) ;
#140 = FACE_BOUND ( 'NONE', #273, .T. ) ;
#141 = VECTOR ( 'NONE', #21, 999.9999999999998863 ) ;
#142 = EDGE_CURVE ( 'NONE', #281, #45, #28, .T. ) ;
#143 = SECURITY_CLASSIFICATION_LEVEL ( 'unclassified' ) ;
#144 = CARTESIAN_POINT ( 'NONE',  ( -154.8395502972293230, 0.000000000000000000, 0.000000000000000000 ) ) ;
#145 = APPROVAL_STATUS ( 'not_yet_approved' ) ;
#146 = DIRECTION ( 'NONE',  ( 0.000000000000000000, 0.000000000000000000, 1.000000000000000000 ) ) ;
#147 = ADVANCED_FACE ( 'NONE', ( #224 ), #201, .T. ) ;
#148 = DIRECTION ( 'NONE',  ( 0.000000000000000000, 0.000000000000000000, 1.000000000000000000 ) ) ;
#149 = VERTEX_POINT ( 'NONE', #42 ) ;
#150 = AXIS2_PLACEMENT_3D ( 'NONE', #280, #195, #93 ) ;
#151 = AXIS2_PLACEMENT_3D ( 'NONE', #307, #254, #146 ) ;
#152 = DIRECTION ( 'NONE',  ( -1.000000000000000000, 0.000000000000000000, -0.000000000000000000 ) ) ;
#153 = CARTESIAN_POINT ( 'NONE',  ( 7.999999999999979572, 0.000000000000000000, 0.000000000000000000 ) ) ;
#154 = CYLINDRICAL_SURFACE ( 'NONE', #94, 12.50000000000001776 ) ;
#155 = CC_DESIGN_PERSON_AND_ORGANIZATION_ASSIGNMENT ( #194, #309, ( #124 ) ) ;
#156 = CARTESIAN_POINT ( 'NONE',  ( -2.775557561562891351E-14, 0.000000000000000000, 11.00000000000001954 ) ) ;
#157 = DIRECTION ( 'NONE',  ( -1.000000000000000000, -0.000000000000000000, -0.000000000000000000 ) ) ;
#158 = LINE ( 'NONE', #291, #231 ) ;
#159 = AXIS2_PLACEMENT_3D ( 'NONE', #340, #48, #342 ) ;
#160 = COORDINATED_UNIVERSAL_TIME_OFFSET ( 1, 0, .AHEAD. ) ;
#161 =( LENGTH_UNIT ( ) NAMED_UNIT ( * ) SI_UNIT ( .MILLI., .METRE. ) );
#162 = APPLICATION_CONTEXT ( 'configuration controlled 3d designs of mechanical parts and assemblies' ) ;
#163 = EDGE_LOOP ( 'NONE', ( #279, #327, #54, #92, #70 ) ) ;
#164 = ADVANCED_FACE ( 'NONE', ( #69, #140 ), #335, .F. ) ;
#165 = DATE_AND_TIME ( #29, #67 ) ;
#166 = LOCAL_TIME ( 12, 13, 19.00000000000000000, #338 ) ;
#167 = VERTEX_POINT ( 'NONE', #256 ) ;
#168 = PERSON_AND_ORGANIZATION_ROLE ( 'design_supplier' ) ;
#169 = CARTESIAN_POINT ( 'NONE',  ( -154.8395502972293230, 0.000000000000000000, 11.00000000000001954 ) ) ;
#170 = LOCAL_TIME ( 12, 13, 19.00000000000000000, #290 ) ;
#171 = DIRECTION ( 'NONE',  ( -1.000000000000000000, -0.000000000000000000, -0.000000000000000000 ) ) ;
#172 = ORIENTED_EDGE ( 'NONE', *, *, #173, .T. ) ;
#173 = EDGE_CURVE ( 'NONE', #90, #311, #59, .T. ) ;
#174 = CARTESIAN_POINT ( 'NONE',  ( 6.999999999999978684, 0.000000000000000000, 11.00000000000002132 ) ) ;
#175 = ORIENTED_EDGE ( 'NONE', *, *, #77, .F. ) ;
#176 = PRODUCT_RELATED_PRODUCT_CATEGORY ( 'detail', '', ( #132 ) ) ;
#177 = FACE_OUTER_BOUND ( 'NONE', #82, .T. ) ;
#178 = AXIS2_PLACEMENT_3D ( 'NONE', #312, #120, #228 ) ;
#179 = DIRECTION ( 'NONE',  ( 0.000000000000000000, 0.000000000000000000, 1.000000000000000000 ) ) ;
#180 = ORIENTED_EDGE ( 'NONE', *, *, #77, .T. ) ;
#181 = FACE_OUTER_BOUND ( 'NONE', #81, .T. ) ;
#182 = EDGE_CURVE ( 'NONE', #45, #90, #336, .T. ) ;
#183 = DIRECTION ( 'NONE',  ( -1.000000000000000000, -0.000000000000000000, -0.000000000000000000 ) ) ;
#184 = AXIS2_PLACEMENT_3D ( 'NONE', #43, #316, #209 ) ;
#185 = DIRECTION ( 'NONE',  ( 0.000000000000000000, 0.000000000000000000, 1.000000000000000000 ) ) ;
#186 = UNCERTAINTY_MEASURE_WITH_UNIT (LENGTH_MEASURE( 1.000000000000000082E-05 ), #161, 'distance_accuracy_value', 'NONE');
#187 = DIRECTION ( 'NONE',  ( -0.7071067811865469066, 0.000000000000000000, 0.7071067811865482389 ) ) ;
#188 = FACE_OUTER_BOUND ( 'NONE', #163, .T. ) ;
#189 = LOCAL_TIME ( 12, 13, 19.00000000000000000, #191 ) ;
#190 = ADVANCED_FACE ( 'NONE', ( #181 ), #317, .T. ) ;
#191 = COORDINATED_UNIVERSAL_TIME_OFFSET ( 1, 0, .AHEAD. ) ;
#192 = AXIS2_PLACEMENT_3D ( 'NONE', #226, #8, #179 ) ;
#193 = ORIENTED_EDGE ( 'NONE', *, *, #38, .T. ) ;
#194 = PERSON_AND_ORGANIZATION ( #105, #79 ) ;
#195 = DIRECTION ( 'NONE',  ( -1.000000000000000000, 0.000000000000000000, -0.000000000000000000 ) ) ;
#196 = ORIENTED_EDGE ( 'NONE', *, *, #283, .F. ) ;
#197 = AXIS2_PLACEMENT_3D ( 'NONE', #310, #282, #7 ) ;
#198 = VERTEX_POINT ( 'NONE', #72 ) ;
#199 = APPROVAL_PERSON_ORGANIZATION ( #240, #236, #109 ) ;
#200 = ORIENTED_EDGE ( 'NONE', *, *, #142, .T. ) ;
#201 = CYLINDRICAL_SURFACE ( 'NONE', #178, 12.50000000000001776 ) ;
#202 = EDGE_LOOP ( 'NONE', ( #32, #200, #35, #243 ) ) ;
#203 = DIRECTION ( 'NONE',  ( -0.000000000000000000, 0.000000000000000000, 1.000000000000000000 ) ) ;
#204 = CARTESIAN_POINT ( 'NONE',  ( 0.000000000000000000, 0.000000000000000000, 12.50000000000001954 ) ) ;
#205 = APPROVAL_PERSON_ORGANIZATION ( #213, #121, #323 ) ;
#206 = APPROVAL_ROLE ( '' ) ;
#207 = EDGE_CURVE ( 'NONE', #136, #286, #302, .T. ) ;
#208 = DIRECTION ( 'NONE',  ( 1.000000000000000000, 0.000000000000000000, 0.000000000000000000 ) ) ;
#209 = DIRECTION ( 'NONE',  ( 0.000000000000000000, 1.000000000000000000, 0.000000000000000000 ) ) ;
#210 = CARTESIAN_POINT ( 'NONE',  ( 7.999999999999979572, 1.224646799147355426E-15, -10.00000000000001954 ) ) ;
#211 = AXIS2_PLACEMENT_3D ( 'NONE', #116, #171, #65 ) ;
#212 = SPHERICAL_SURFACE ( 'NONE', #184, 18.12499999999998934 ) ;
#213 = PERSON_AND_ORGANIZATION ( #105, #79 ) ;
#214 = EDGE_CURVE ( 'NONE', #86, #149, #158, .T. ) ;
#215 = COORDINATED_UNIVERSAL_TIME_OFFSET ( 1, 0, .AHEAD. ) ;
#216 = ORIENTED_EDGE ( 'NONE', *, *, #98, .F. ) ;
#217 = AXIS2_PLACEMENT_3D ( 'NONE', #39, #5, #89 ) ;
#218 = CONICAL_SURFACE ( 'NONE', #339, 10.00000000000001954, 0.7853981633974491672 ) ;
#219 = DIRECTION ( 'NONE',  ( -1.000000000000000000, -0.000000000000000000, -0.000000000000000000 ) ) ;
#220 = DATE_AND_TIME ( #304, #166 ) ;
#221 = CYLINDRICAL_SURFACE ( 'NONE', #296, 11.00000000000001954 ) ;
#222 = ORIENTED_EDGE ( 'NONE', *, *, #142, .F. ) ;
#223 = ADVANCED_FACE ( 'NONE', ( #20 ), #289, .T. ) ;
#224 = FACE_OUTER_BOUND ( 'NONE', #330, .T. ) ;
#225 = AXIS2_PLACEMENT_3D ( 'NONE', #97, #74, #185 ) ;
#226 = CARTESIAN_POINT ( 'NONE',  ( 7.999999999999979572, 0.000000000000000000, 0.000000000000000000 ) ) ;
#227 = ORIENTED_EDGE ( 'NONE', *, *, #249, .T. ) ;
#228 = DIRECTION ( 'NONE',  ( 0.000000000000000000, 0.000000000000000000, 1.000000000000000000 ) ) ;
#229 = EDGE_CURVE ( 'NONE', #281, #167, #131, .T. ) ;
#230 = FACE_OUTER_BOUND ( 'NONE', #60, .T. ) ;
#231 = VECTOR ( 'NONE', #183, 1000.000000000000000 ) ;
#232 = CARTESIAN_POINT ( 'NONE',  ( 7.999999999999979572, 1.285879139104723394E-15, -10.00000000000001954 ) ) ;
#233 = EDGE_CURVE ( 'NONE', #64, #286, #347, .T. ) ;
#234 = FACE_OUTER_BOUND ( 'NONE', #202, .T. ) ;
#235 = CARTESIAN_POINT ( 'NONE',  ( -154.8395502972293230, 1.530808498934193691E-15, -12.50000000000001776 ) ) ;
#236 = APPROVAL ( #351, 'UNSPECIFIED' ) ;
#237 = CARTESIAN_POINT ( 'NONE',  ( 0.000000000000000000, 0.000000000000000000, 0.000000000000000000 ) ) ;
#238 = ORIENTED_EDGE ( 'NONE', *, *, #19, .F. ) ;
#239 = AXIS2_PLACEMENT_3D ( 'NONE', #103, #294, #293 ) ;
#240 = PERSON_AND_ORGANIZATION ( #105, #79 ) ;
#241 = APPROVAL_DATE_TIME ( #165, #236 ) ;
#242 = ADVANCED_FACE ( 'NONE', ( #230 ), #83, .T. ) ;
#243 = ORIENTED_EDGE ( 'NONE', *, *, #15, .F. ) ;
#244 = AXIS2_PLACEMENT_3D ( 'NONE', #153, #322, #102 ) ;
#245 = ORIENTED_EDGE ( 'NONE', *, *, #173, .F. ) ;
#246 = PERSON_AND_ORGANIZATION ( #105, #79 ) ;
#247 = DIRECTION ( 'NONE',  ( 0.000000000000000000, 0.000000000000000000, 1.000000000000000000 ) ) ;
#248 = ORIENTED_EDGE ( 'NONE', *, *, #126, .T. ) ;
#249 = EDGE_CURVE ( 'NONE', #40, #311, #270, .T. ) ;
#250 = PERSON_AND_ORGANIZATION_ROLE ( 'creator' ) ;
#251 = CARTESIAN_POINT ( 'NONE',  ( 0.000000000000000000, 0.000000000000000000, 0.000000000000000000 ) ) ;
#252 = ORIENTED_EDGE ( 'NONE', *, *, #214, .T. ) ;
#253 = CIRCLE ( 'NONE', #217, 12.50000000000001776 ) ;
#254 = DIRECTION ( 'NONE',  ( -1.000000000000000000, -0.000000000000000000, -0.000000000000000000 ) ) ;
#255 = ORIENTED_EDGE ( 'NONE', *, *, #56, .T. ) ;
#256 = CARTESIAN_POINT ( 'NONE',  ( 6.999999999999978684, 1.347111479062091363E-15, -11.00000000000002132 ) ) ;
#257 = EDGE_LOOP ( 'NONE', ( #259, #222 ) ) ;
#258 = DIRECTION ( 'NONE',  ( 0.000000000000000000, 0.000000000000000000, 1.000000000000000000 ) ) ;
#259 = ORIENTED_EDGE ( 'NONE', *, *, #292, .F. ) ;
#260 = DIRECTION ( 'NONE',  ( -0.000000000000000000, 0.000000000000000000, 1.000000000000000000 ) ) ;
#261 = CARTESIAN_POINT ( 'NONE',  ( 7.999999999999979572, 0.000000000000000000, 0.000000000000000000 ) ) ;
#262 = EDGE_CURVE ( 'NONE', #167, #40, #49, .T. ) ;
#263 = DIRECTION ( 'NONE',  ( -1.000000000000000000, -0.000000000000000000, -0.000000000000000000 ) ) ;
#264 = VECTOR ( 'NONE', #187, 999.9999999999998863 ) ;
#265 = LOCAL_TIME ( 12, 13, 19.00000000000000000, #160 ) ;
#266 = PERSON_AND_ORGANIZATION_ROLE ( 'design_owner' ) ;
#267 = DATE_AND_TIME ( #134, #189 ) ;
#268 = ORIENTED_EDGE ( 'NONE', *, *, #249, .F. ) ;
#269 = CC_DESIGN_PERSON_AND_ORGANIZATION_ASSIGNMENT ( #78, #266, ( #132 ) ) ;
#270 = CIRCLE ( 'NONE', #239, 11.00000000000001954 ) ;
#271 = DATE_TIME_ROLE ( 'creation_date' ) ;
#272 = PRODUCT_DEFINITION_SHAPE ( 'NONE', 'NONE',  #31 ) ;
#273 = EDGE_LOOP ( 'NONE', ( #180, #227 ) ) ;
#274 = VERTEX_POINT ( 'NONE', #348 ) ;
#275 = PERSON_AND_ORGANIZATION ( #105, #79 ) ;
#276 = VECTOR ( 'NONE', #344, 1000.000000000000000 ) ;
#277 = CARTESIAN_POINT ( 'NONE',  ( 7.999999999999979572, 0.000000000000000000, 10.00000000000001954 ) ) ;
#278 = CC_DESIGN_PERSON_AND_ORGANIZATION_ASSIGNMENT ( #246, #168, ( #16 ) ) ;
#279 = ORIENTED_EDGE ( 'NONE', *, *, #98, .T. ) ;
#280 = CARTESIAN_POINT ( 'NONE',  ( 7.999999999999983125, 8.875796951589162995E-16, 0.000000000000000000 ) ) ;
#281 = VERTEX_POINT ( 'NONE', #232 ) ;
#282 = DIRECTION ( 'NONE',  ( -1.000000000000000000, -0.000000000000000000, -0.000000000000000000 ) ) ;
#283 = EDGE_CURVE ( 'NONE', #90, #167, #297, .T. ) ;
#284 = CARTESIAN_POINT ( 'NONE',  ( -2.775557561562891351E-14, 1.347111479062090968E-15, -11.00000000000001954 ) ) ;
#285 =( GEOMETRIC_REPRESENTATION_CONTEXT ( 3 ) GLOBAL_UNCERTAINTY_ASSIGNED_CONTEXT ( ( #186 ) ) GLOBAL_UNIT_ASSIGNED_CONTEXT ( ( #161, #303, #133 ) ) REPRESENTATION_CONTEXT ( 'NONE', 'WORKASPACE' ) );
#286 = VERTEX_POINT ( 'NONE', #96 ) ;
#287 = DIRECTION ( 'NONE',  ( -1.000000000000000000, -0.000000000000000000, -0.000000000000000000 ) ) ;
#288 = ORIENTED_EDGE ( 'NONE', *, *, #350, .T. ) ;
#289 = SPHERICAL_SURFACE ( 'NONE', #113, 18.12499999999998934 ) ;
#290 = COORDINATED_UNIVERSAL_TIME_OFFSET ( 1, 0, .AHEAD. ) ;
#291 = CARTESIAN_POINT ( 'NONE',  ( -154.8395502972293230, 0.000000000000000000, 12.50000000000001776 ) ) ;
#292 = EDGE_CURVE ( 'NONE', #45, #281, #3, .T. ) ;
#293 = DIRECTION ( 'NONE',  ( 0.000000000000000000, 0.000000000000000000, 1.000000000000000000 ) ) ;
#294 = DIRECTION ( 'NONE',  ( -1.000000000000000000, -0.000000000000000000, -0.000000000000000000 ) ) ;
#295 = ADVANCED_FACE ( 'NONE', ( #76 ), #212, .T. ) ;
#296 = AXIS2_PLACEMENT_3D ( 'NONE', #144, #36, #12 ) ;
#297 = CIRCLE ( 'NONE', #159, 11.00000000000002132 ) ;
#298 = APPLICATION_PROTOCOL_DEFINITION ( 'international standard', 'config_control_design', 1994, #127 ) ;
#299 = PERSON_AND_ORGANIZATION_ROLE ( 'creator' ) ;
#300 = CARTESIAN_POINT ( 'NONE',  ( -2.000000000000001776, 0.000000000000000000, 0.000000000000000000 ) ) ;
#301 = AXIS2_PLACEMENT_3D ( 'NONE', #114, #219, #148 ) ;
#302 = CIRCLE ( 'NONE', #73, 18.12499999999998934 ) ;
#303 =( NAMED_UNIT ( * ) PLANE_ANGLE_UNIT ( ) SI_UNIT ( $, .RADIAN. ) );
#304 = CALENDAR_DATE ( 2024, 21, 9 ) ;
#305 = DATE_TIME_ROLE ( 'classification_date' ) ;
#306 = ADVANCED_FACE ( 'NONE', ( #188 ), #154, .T. ) ;
#307 = CARTESIAN_POINT ( 'NONE',  ( 0.000000000000000000, 0.000000000000000000, 0.000000000000000000 ) ) ;
#308 = ORIENTED_EDGE ( 'NONE', *, *, #56, .F. ) ;
#309 = PERSON_AND_ORGANIZATION_ROLE ( 'classification_officer' ) ;
#310 = CARTESIAN_POINT ( 'NONE',  ( 6.999999999999978684, 0.000000000000000000, 0.000000000000000000 ) ) ;
#311 = VERTEX_POINT ( 'NONE', #156 ) ;
#312 = CARTESIAN_POINT ( 'NONE',  ( -154.8395502972293230, 0.000000000000000000, 0.000000000000000000 ) ) ;
#313 = ORIENTED_EDGE ( 'NONE', *, *, #229, .T. ) ;
#314 = AXIS2_PLACEMENT_3D ( 'NONE', #91, #152, #203 ) ;
#315 = CARTESIAN_POINT ( 'NONE',  ( -2.000000000000000888, 12.50000000000001599, 0.000000000000000000 ) ) ;
#316 = DIRECTION ( 'NONE',  ( -0.000000000000000000, 0.000000000000000000, -1.000000000000000000 ) ) ;
#317 = CYLINDRICAL_SURFACE ( 'NONE', #51, 11.00000000000001954 ) ;
#318 = CARTESIAN_POINT ( 'NONE',  ( 11.12499999999996447, -8.673617379884035472E-16, 0.000000000000000000 ) ) ;
#319 = CC_DESIGN_APPROVAL ( #236, ( #16 ) ) ;
#320 = DIRECTION ( 'NONE',  ( 0.000000000000000000, 0.000000000000000000, 1.000000000000000000 ) ) ;
#321 = MANIFOLD_SOLID_BREP ( 'Rotation1', #324 ) ;
#322 = DIRECTION ( 'NONE',  ( -1.000000000000000000, -0.000000000000000000, -0.000000000000000000 ) ) ;
#323 = APPROVAL_ROLE ( '' ) ;
#324 = CLOSED_SHELL ( 'NONE', ( #242, #190, #306, #223, #295, #147, #164, #87, #333, #68 ) ) ;
#325 = APPROVAL_PERSON_ORGANIZATION ( #275, #63, #206 ) ;
#326 = CC_DESIGN_PERSON_AND_ORGANIZATION_ASSIGNMENT ( #106, #299, ( #31 ) ) ;
#327 = ORIENTED_EDGE ( 'NONE', *, *, #346, .T. ) ;
#328 = AXIS2_PLACEMENT_3D ( 'NONE', #237, #349, #53 ) ;
#329 = CARTESIAN_POINT ( 'NONE',  ( -2.000000000000000888, -12.50000000000001776, -1.530808498934193493E-15 ) ) ;
#330 = EDGE_LOOP ( 'NONE', ( #138, #248, #252, #308, #238 ) ) ;
#331 = CIRCLE ( 'NONE', #211, 12.50000000000001776 ) ;
#332 = CARTESIAN_POINT ( 'NONE',  ( -2.775557561562891351E-14, 0.000000000000000000, 0.000000000000000000 ) ) ;
#333 = ADVANCED_FACE ( 'NONE', ( #234 ), #218, .T. ) ;
#334 = ORIENTED_EDGE ( 'NONE', *, *, #207, .T. ) ;
#335 = PLANE ( 'NONE',  #314 ) ;
#336 = LINE ( 'NONE', #277, #264 ) ;
#337 = EDGE_LOOP ( 'NONE', ( #117, #255, #193, #334 ) ) ;
#338 = COORDINATED_UNIVERSAL_TIME_OFFSET ( 1, 0, .AHEAD. ) ;
#339 = AXIS2_PLACEMENT_3D ( 'NONE', #261, #18, #128 ) ;
#340 = CARTESIAN_POINT ( 'NONE',  ( 6.999999999999978684, 0.000000000000000000, 0.000000000000000000 ) ) ;
#341 = CC_DESIGN_PERSON_AND_ORGANIZATION_ASSIGNMENT ( #110, #250, ( #16 ) ) ;
#342 = DIRECTION ( 'NONE',  ( 0.000000000000000000, 0.000000000000000000, 1.000000000000000000 ) ) ;
#343 = DIRECTION ( 'NONE',  ( 0.000000000000000000, 1.224646799147353207E-16, -1.000000000000000000 ) ) ;
#344 = DIRECTION ( 'NONE',  ( -1.000000000000000000, -0.000000000000000000, -0.000000000000000000 ) ) ;
#345 = CIRCLE ( 'NONE', #22, 11.00000000000001954 ) ;
#346 = EDGE_CURVE ( 'NONE', #274, #198, #129, .T. ) ;
#347 = CIRCLE ( 'NONE', #61, 18.12499999999998934 ) ;
#348 = CARTESIAN_POINT ( 'NONE',  ( 0.000000000000000000, 1.530808498934194085E-15, -12.50000000000002132 ) ) ;
#349 = DIRECTION ( 'NONE',  ( 0.000000000000000000, 0.000000000000000000, 1.000000000000000000 ) ) ;
#350 = EDGE_CURVE ( 'NONE', #136, #198, #88, .T. ) ;
#351 = APPROVAL_STATUS ( 'not_yet_approved' ) ;
ENDSEC;
END-ISO-10303-21;
