ISO-10303-21;
HEADER;
FILE_DESCRIPTION (( 'STEP AP203' ),
    '1' );
FILE_NAME ('3D_M2060_15-10_174121010.STEP',
    '2024-09-05T10:11:19',
    ( '' ),
    ( '' ),
    'SwSTEP 2.0',
    'SolidWorks 2024',
    '' );
FILE_SCHEMA (( 'CONFIG_CONTROL_DESIGN' ));
ENDSEC;

DATA;
#1 = LOCAL_TIME ( 12, 11, 19.00000000000000000, #242 ) ;
#2 = DIRECTION ( 'NONE',  ( 1.000000000000000000, 0.000000000000000000, 0.000000000000000000 ) ) ;
#3 = AXIS2_PLACEMENT_3D ( 'NONE', #20, #2, #231 ) ;
#4 = APPLICATION_PROTOCOL_DEFINITION ( 'international standard', 'config_control_design', 1994, #217 ) ;
#5 = APPLICATION_PROTOCOL_DEFINITION ( 'international standard', 'config_control_design', 1994, #171 ) ;
#6 = PERSON_AND_ORGANIZATION_ROLE ( 'classification_officer' ) ;
#7 = ORIENTED_EDGE ( 'NONE', *, *, #45, .T. ) ;
#8 = ADVANCED_FACE ( 'NONE', ( #190 ), #59, .T. ) ;
#9 = DATE_AND_TIME ( #67, #244 ) ;
#10 = CC_DESIGN_APPROVAL ( #94, ( #25 ) ) ;
#11 = VERTEX_POINT ( 'NONE', #57 ) ;
#12 = PLANE ( 'NONE',  #37 ) ;
#13 = CIRCLE ( 'NONE', #153, 3.461748067362026227 ) ;
#14 = CARTESIAN_POINT ( 'NONE',  ( 11.00000000000000000, 5.770227189083631958E-16, -3.461748067362026227 ) ) ;
#15 = AXIS2_PLACEMENT_3D ( 'NONE', #116, #137, #138 ) ;
#16 = EDGE_CURVE ( 'NONE', #115, #51, #23, .T. ) ;
#17 = CARTESIAN_POINT ( 'NONE',  ( 10.66756834461654790, 0.000000000000000000, 0.000000000000000000 ) ) ;
#18 = PRODUCT_DEFINITION ( 'UNKNOWN', '', #133, #50 ) ;
#19 = FACE_OUTER_BOUND ( 'NONE', #238, .T. ) ;
#20 = CARTESIAN_POINT ( 'NONE',  ( 0.000000000000000000, 0.000000000000000000, 0.000000000000000000 ) ) ;
#21 = PERSON_AND_ORGANIZATION ( #139, #144 ) ;
#22 = DIRECTION ( 'NONE',  ( -1.000000000000000000, -0.000000000000000000, -0.000000000000000000 ) ) ;
#23 = CIRCLE ( 'NONE', #3, 5.961748067362025338 ) ;
#24 = DIRECTION ( 'NONE',  ( -1.000000000000000000, -0.000000000000000000, -0.000000000000000000 ) ) ;
#25 = SECURITY_CLASSIFICATION ( '', '', #199 ) ;
#26 = PERSON_AND_ORGANIZATION_ROLE ( 'creator' ) ;
#27 = APPROVAL_PERSON_ORGANIZATION ( #124, #39, #105 ) ;
#28 = APPROVAL_ROLE ( '' ) ;
#29 = PERSON_AND_ORGANIZATION ( #139, #144 ) ;
#30 = ORIENTED_EDGE ( 'NONE', *, *, #130, .T. ) ;
#31 = APPROVAL_STATUS ( 'not_yet_approved' ) ;
#32 = EDGE_LOOP ( 'NONE', ( #211, #148, #229, #42 ) ) ;
#33 = DATE_TIME_ROLE ( 'classification_date' ) ;
#34 = VERTEX_POINT ( 'NONE', #168 ) ;
#35 = CARTESIAN_POINT ( 'NONE',  ( 0.000000000000000000, 7.301035688017823282E-16, -5.961748067362025338 ) ) ;
#36 = DIRECTION ( 'NONE',  ( -0.9751328557914598072, 0.000000000000000000, 0.2216211035889680825 ) ) ;
#37 = AXIS2_PLACEMENT_3D ( 'NONE', #93, #166, #245 ) ;
#38 = CARTESIAN_POINT ( 'NONE',  ( 11.00000000000000000, 0.000000000000000000, 3.461748067362026227 ) ) ;
#39 = APPROVAL ( #31, 'UNSPECIFIED' ) ;
#40 = CC_DESIGN_APPROVAL ( #81, ( #18 ) ) ;
#41 = DIRECTION ( 'NONE',  ( 1.000000000000000000, 0.000000000000000000, 0.000000000000000000 ) ) ;
#42 = ORIENTED_EDGE ( 'NONE', *, *, #109, .F. ) ;
#43 = DATE_AND_TIME ( #77, #200 ) ;
#44 = DIRECTION ( 'NONE',  ( 0.000000000000000000, 0.000000000000000000, 1.000000000000000000 ) ) ;
#45 = EDGE_CURVE ( 'NONE', #222, #230, #146, .T. ) ;
#46 = CARTESIAN_POINT ( 'NONE',  ( 0.000000000000000000, 0.000000000000000000, 0.000000000000000000 ) ) ;
#47 = CC_DESIGN_SECURITY_CLASSIFICATION ( #25, ( #133 ) ) ;
#48 = AXIS2_PLACEMENT_3D ( 'NONE', #83, #154, #80 ) ;
#49 =( GEOMETRIC_REPRESENTATION_CONTEXT ( 3 ) GLOBAL_UNCERTAINTY_ASSIGNED_CONTEXT ( ( #87 ) ) GLOBAL_UNIT_ASSIGNED_CONTEXT ( ( #219, #104, #197 ) ) REPRESENTATION_CONTEXT ( 'NONE', 'WORKASPACE' ) );
#50 = DESIGN_CONTEXT ( 'detailed design', #171, 'design' ) ;
#51 = VERTEX_POINT ( 'NONE', #35 ) ;
#52 = DIRECTION ( 'NONE',  ( -1.000000000000000000, -0.000000000000000000, -0.000000000000000000 ) ) ;
#53 = EDGE_CURVE ( 'NONE', #34, #11, #228, .T. ) ;
#54 = CARTESIAN_POINT ( 'NONE',  ( 11.00000000000000000, 6.123233995736766282E-16, -5.000000000000000000 ) ) ;
#55 = AXIS2_PLACEMENT_3D ( 'NONE', #113, #97, #170 ) ;
#56 = DIRECTION ( 'NONE',  ( -0.9751328557914598072, 2.714075751337337520E-17, -0.2216211035889680825 ) ) ;
#57 = CARTESIAN_POINT ( 'NONE',  ( 0.000000000000000000, 1.377727649040772192E-15, -7.500000000000000000 ) ) ;
#58 = DIRECTION ( 'NONE',  ( 0.000000000000000000, 0.000000000000000000, -1.000000000000000000 ) ) ;
#59 = CONICAL_SURFACE ( 'NONE', #92, 5.000000000000000000, 0.2234766011406330022 ) ;
#60 = APPROVAL_STATUS ( 'not_yet_approved' ) ;
#61 = AXIS2_PLACEMENT_3D ( 'NONE', #235, #155, #58 ) ;
#62 = DIRECTION ( 'NONE',  ( 0.000000000000000000, 0.000000000000000000, 1.000000000000000000 ) ) ;
#63 = ADVANCED_FACE ( 'NONE', ( #186, #19 ), #12, .T. ) ;
#64 = APPROVAL_DATE_TIME ( #43, #81 ) ;
#65 = ADVANCED_FACE ( 'NONE', ( #72 ), #119, .F. ) ;
#66 = FACE_BOUND ( 'NONE', #68, .T. ) ;
#67 = CALENDAR_DATE ( 2024, 5, 9 ) ;
#68 = EDGE_LOOP ( 'NONE', ( #243, #151 ) ) ;
#69 = CIRCLE ( 'NONE', #55, 5.000000000000000000 ) ;
#70 = APPROVAL_DATE_TIME ( #184, #94 ) ;
#71 = ORIENTED_EDGE ( 'NONE', *, *, #53, .T. ) ;
#72 = FACE_OUTER_BOUND ( 'NONE', #32, .T. ) ;
#73 = PRODUCT_DEFINITION_SHAPE ( 'NONE', 'NONE',  #18 ) ;
#74 = ORIENTED_EDGE ( 'NONE', *, *, #45, .F. ) ;
#75 = CARTESIAN_POINT ( 'NONE',  ( 0.000000000000000000, 0.000000000000000000, 5.961748067362025338 ) ) ;
#76 = CARTESIAN_POINT ( 'NONE',  ( 10.66756834461654790, 4.331943999854122767E-16, -3.537300716312810511 ) ) ;
#77 = CALENDAR_DATE ( 2024, 5, 9 ) ;
#78 = MECHANICAL_CONTEXT ( 'NONE', #217, 'mechanical' ) ;
#79 = AXIS2_PLACEMENT_3D ( 'NONE', #17, #52, #206 ) ;
#80 = DIRECTION ( 'NONE',  ( 0.000000000000000000, 0.000000000000000000, -1.000000000000000000 ) ) ;
#81 = APPROVAL ( #60, 'UNSPECIFIED' ) ;
#82 = PERSON_AND_ORGANIZATION ( #139, #144 ) ;
#83 = CARTESIAN_POINT ( 'NONE',  ( 11.00000000000000000, 0.000000000000000000, 0.000000000000000000 ) ) ;
#84 = CC_DESIGN_APPROVAL ( #39, ( #133 ) ) ;
#85 = PERSON_AND_ORGANIZATION ( #139, #144 ) ;
#86 = EDGE_LOOP ( 'NONE', ( #95, #71, #114, #74 ) ) ;
#87 = UNCERTAINTY_MEASURE_WITH_UNIT (LENGTH_MEASURE( 1.000000000000000082E-05 ), #219, 'distance_accuracy_value', 'NONE');
#88 = CALENDAR_DATE ( 2024, 5, 9 ) ;
#89 = LOCAL_TIME ( 12, 11, 19.00000000000000000, #163 ) ;
#90 = EDGE_CURVE ( 'NONE', #121, #115, #127, .T. ) ;
#91 = ORIENTED_EDGE ( 'NONE', *, *, #225, .T. ) ;
#92 = AXIS2_PLACEMENT_3D ( 'NONE', #189, #172, #173 ) ;
#93 = CARTESIAN_POINT ( 'NONE',  ( 11.00000000000000000, 0.000000000000000000, 0.000000000000000000 ) ) ;
#94 = APPROVAL ( #120, 'UNSPECIFIED' ) ;
#95 = ORIENTED_EDGE ( 'NONE', *, *, #169, .F. ) ;
#96 = AXIS2_PLACEMENT_3D ( 'NONE', #180, #193, #100 ) ;
#97 = DIRECTION ( 'NONE',  ( 1.000000000000000000, 0.000000000000000000, 0.000000000000000000 ) ) ;
#98 = CARTESIAN_POINT ( 'NONE',  ( 0.000000000000000000, 0.000000000000000000, 0.000000000000000000 ) ) ;
#99 = ORIENTED_EDGE ( 'NONE', *, *, #101, .F. ) ;
#100 = DIRECTION ( 'NONE',  ( 0.000000000000000000, 0.000000000000000000, -1.000000000000000000 ) ) ;
#101 = EDGE_CURVE ( 'NONE', #106, #121, #13, .T. ) ;
#102 = CARTESIAN_POINT ( 'NONE',  ( 0.000000000000000000, -4.592425496802573972E-16, 7.500000000000000000 ) ) ;
#103 = APPROVAL_PERSON_ORGANIZATION ( #82, #81, #28 ) ;
#104 =( NAMED_UNIT ( * ) PLANE_ANGLE_UNIT ( ) SI_UNIT ( $, .RADIAN. ) );
#105 = APPROVAL_ROLE ( '' ) ;
#106 = VERTEX_POINT ( 'NONE', #14 ) ;
#107 = DATE_AND_TIME ( #202, #1 ) ;
#108 = ORIENTED_EDGE ( 'NONE', *, *, #132, .T. ) ;
#109 = EDGE_CURVE ( 'NONE', #51, #115, #128, .T. ) ;
#110 = DIRECTION ( 'NONE',  ( -0.9751328557914598072, 2.714075751337337520E-17, -0.2216211035889680825 ) ) ;
#111 = CLOSED_SHELL ( 'NONE', ( #223, #8, #63, #248, #201, #65 ) ) ;
#112 = CARTESIAN_POINT ( 'NONE',  ( 11.00000000000000000, 0.000000000000000000, 0.000000000000000000 ) ) ;
#113 = CARTESIAN_POINT ( 'NONE',  ( 11.00000000000000000, 0.000000000000000000, 0.000000000000000000 ) ) ;
#114 = ORIENTED_EDGE ( 'NONE', *, *, #203, .T. ) ;
#115 = VERTEX_POINT ( 'NONE', #75 ) ;
#116 = CARTESIAN_POINT ( 'NONE',  ( 11.00000000000000000, 0.000000000000000000, 0.000000000000000000 ) ) ;
#117 = DIRECTION ( 'NONE',  ( 1.000000000000000000, 0.000000000000000000, 0.000000000000000000 ) ) ;
#118 = APPROVAL_PERSON_ORGANIZATION ( #85, #94, #160 ) ;
#119 = CONICAL_SURFACE ( 'NONE', #79, 3.537300716312810511, 0.2234766011406330022 ) ;
#120 = APPROVAL_STATUS ( 'not_yet_approved' ) ;
#121 = VERTEX_POINT ( 'NONE', #38 ) ;
#122 = CC_DESIGN_DATE_AND_TIME_ASSIGNMENT ( #9, #181, ( #18 ) ) ;
#123 = DATE_AND_TIME ( #88, #164 ) ;
#124 = PERSON_AND_ORGANIZATION ( #139, #144 ) ;
#125 = ORIENTED_EDGE ( 'NONE', *, *, #178, .F. ) ;
#126 = PRODUCT ( '3D_M2060_15-10_174121010', '3D_M2060_15-10_174121010', '', ( #78 ) ) ;
#127 = LINE ( 'NONE', #150, #239 ) ;
#128 = CIRCLE ( 'NONE', #175, 5.961748067362025338 ) ;
#129 = DIRECTION ( 'NONE',  ( 1.000000000000000000, 0.000000000000000000, 0.000000000000000000 ) ) ;
#130 = EDGE_CURVE ( 'NONE', #222, #34, #69, .T. ) ;
#131 = EDGE_LOOP ( 'NONE', ( #240, #99 ) ) ;
#132 = EDGE_CURVE ( 'NONE', #106, #51, #247, .T. ) ;
#133 = PRODUCT_DEFINITION_FORMATION_WITH_SPECIFIED_SOURCE ( 'ANY', '', #126, .NOT_KNOWN. ) ;
#134 = ORIENTED_EDGE ( 'NONE', *, *, #130, .F. ) ;
#135 = DIRECTION ( 'NONE',  ( 1.000000000000000000, 0.000000000000000000, 0.000000000000000000 ) ) ;
#136 = CARTESIAN_POINT ( 'NONE',  ( 10.66756834461654790, 0.000000000000000000, 0.000000000000000000 ) ) ;
#137 = DIRECTION ( 'NONE',  ( 1.000000000000000000, 0.000000000000000000, 0.000000000000000000 ) ) ;
#138 = DIRECTION ( 'NONE',  ( 0.000000000000000000, 0.000000000000000000, -1.000000000000000000 ) ) ;
#139 = PERSON ( 'UNSPECIFIED', 'UNSPECIFIED', 'UNSPECIFIED', ('UNSPECIFIED'), ('UNSPECIFIED'), ('UNSPECIFIED') ) ;
#140 = PERSON_AND_ORGANIZATION ( #139, #144 ) ;
#141 = EDGE_LOOP ( 'NONE', ( #91, #108, #249, #161 ) ) ;
#142 = VECTOR ( 'NONE', #147, 1000.000000000000227 ) ;
#143 = CC_DESIGN_PERSON_AND_ORGANIZATION_ASSIGNMENT ( #21, #194, ( #126 ) ) ;
#144 = ORGANIZATION ( 'UNSPECIFIED', 'UNSPECIFIED', '' ) ;
#145 = PERSON_AND_ORGANIZATION ( #139, #144 ) ;
#146 = LINE ( 'NONE', #205, #142 ) ;
#147 = DIRECTION ( 'NONE',  ( -0.9751328557914598072, 0.000000000000000000, 0.2216211035889680825 ) ) ;
#148 = ORIENTED_EDGE ( 'NONE', *, *, #101, .T. ) ;
#149 = CC_DESIGN_PERSON_AND_ORGANIZATION_ASSIGNMENT ( #29, #6, ( #25 ) ) ;
#150 = CARTESIAN_POINT ( 'NONE',  ( 10.66756834461654790, 0.000000000000000000, 3.537300716312810511 ) ) ;
#151 = ORIENTED_EDGE ( 'NONE', *, *, #109, .T. ) ;
#152 = FACE_OUTER_BOUND ( 'NONE', #227, .T. ) ;
#153 = AXIS2_PLACEMENT_3D ( 'NONE', #112, #129, #187 ) ;
#154 = DIRECTION ( 'NONE',  ( 1.000000000000000000, 0.000000000000000000, 0.000000000000000000 ) ) ;
#155 = DIRECTION ( 'NONE',  ( 1.000000000000000000, 0.000000000000000000, 0.000000000000000000 ) ) ;
#156 = CIRCLE ( 'NONE', #15, 3.461748067362026227 ) ;
#157 = COORDINATED_UNIVERSAL_TIME_OFFSET ( 1, 0, .AHEAD. ) ;
#158 = DIRECTION ( 'NONE',  ( 0.000000000000000000, 0.000000000000000000, 1.000000000000000000 ) ) ;
#159 = MANIFOLD_SOLID_BREP ( 'Wandung2', #111 ) ;
#160 = APPROVAL_ROLE ( '' ) ;
#161 = ORIENTED_EDGE ( 'NONE', *, *, #90, .F. ) ;
#162 = ORIENTED_EDGE ( 'NONE', *, *, #169, .T. ) ;
#163 = COORDINATED_UNIVERSAL_TIME_OFFSET ( 1, 0, .AHEAD. ) ;
#164 = LOCAL_TIME ( 12, 11, 19.00000000000000000, #185 ) ;
#165 = AXIS2_PLACEMENT_3D ( 'NONE', #233, #135, #236 ) ;
#166 = DIRECTION ( 'NONE',  ( 1.000000000000000000, 0.000000000000000000, 0.000000000000000000 ) ) ;
#167 = AXIS2_PLACEMENT_3D ( 'NONE', #214, #22, #62 ) ;
#168 = CARTESIAN_POINT ( 'NONE',  ( 11.00000000000000000, 3.061616997868383141E-16, -5.000000000000000000 ) ) ;
#169 = EDGE_CURVE ( 'NONE', #34, #222, #208, .T. ) ;
#170 = DIRECTION ( 'NONE',  ( 0.000000000000000000, 0.000000000000000000, -1.000000000000000000 ) ) ;
#171 = APPLICATION_CONTEXT ( 'configuration controlled 3d designs of mechanical parts and assemblies' ) ;
#172 = DIRECTION ( 'NONE',  ( -1.000000000000000000, -0.000000000000000000, -0.000000000000000000 ) ) ;
#173 = DIRECTION ( 'NONE',  ( 0.000000000000000000, 0.000000000000000000, 1.000000000000000000 ) ) ;
#174 = FACE_OUTER_BOUND ( 'NONE', #141, .T. ) ;
#175 = AXIS2_PLACEMENT_3D ( 'NONE', #98, #41, #209 ) ;
#176 = CC_DESIGN_DATE_AND_TIME_ASSIGNMENT ( #107, #33, ( #25 ) ) ;
#177 = AXIS2_PLACEMENT_3D ( 'NONE', #136, #24, #158 ) ;
#178 = EDGE_CURVE ( 'NONE', #230, #11, #221, .T. ) ;
#179 = COORDINATED_UNIVERSAL_TIME_OFFSET ( 1, 0, .AHEAD. ) ;
#180 = CARTESIAN_POINT ( 'NONE',  ( 0.000000000000000000, 0.000000000000000000, 0.000000000000000000 ) ) ;
#181 = DATE_TIME_ROLE ( 'creation_date' ) ;
#182 = PERSON_AND_ORGANIZATION_ROLE ( 'creator' ) ;
#183 = ORIENTED_EDGE ( 'NONE', *, *, #178, .T. ) ;
#184 = DATE_AND_TIME ( #226, #89 ) ;
#185 = COORDINATED_UNIVERSAL_TIME_OFFSET ( 1, 0, .AHEAD. ) ;
#186 = FACE_BOUND ( 'NONE', #131, .T. ) ;
#187 = DIRECTION ( 'NONE',  ( 0.000000000000000000, 0.000000000000000000, -1.000000000000000000 ) ) ;
#188 = CIRCLE ( 'NONE', #61, 7.500000000000000000 ) ;
#189 = CARTESIAN_POINT ( 'NONE',  ( 11.00000000000000000, 0.000000000000000000, 0.000000000000000000 ) ) ;
#190 = FACE_OUTER_BOUND ( 'NONE', #86, .T. ) ;
#191 = ORIENTED_EDGE ( 'NONE', *, *, #203, .F. ) ;
#192 = PLANE ( 'NONE',  #96 ) ;
#193 = DIRECTION ( 'NONE',  ( 1.000000000000000000, 0.000000000000000000, 0.000000000000000000 ) ) ;
#194 = PERSON_AND_ORGANIZATION_ROLE ( 'design_owner' ) ;
#195 = CC_DESIGN_PERSON_AND_ORGANIZATION_ASSIGNMENT ( #140, #204, ( #133 ) ) ;
#196 = PERSON_AND_ORGANIZATION ( #139, #144 ) ;
#197 =( NAMED_UNIT ( * ) SI_UNIT ( $, .STERADIAN. ) SOLID_ANGLE_UNIT ( ) );
#198 = VECTOR ( 'NONE', #56, 1000.000000000000227 ) ;
#199 = SECURITY_CLASSIFICATION_LEVEL ( 'unclassified' ) ;
#200 = LOCAL_TIME ( 12, 11, 19.00000000000000000, #157 ) ;
#201 = ADVANCED_FACE ( 'NONE', ( #215 ), #210, .T. ) ;
#202 = CALENDAR_DATE ( 2024, 5, 9 ) ;
#203 = EDGE_CURVE ( 'NONE', #11, #230, #188, .T. ) ;
#204 = PERSON_AND_ORGANIZATION_ROLE ( 'design_supplier' ) ;
#205 = CARTESIAN_POINT ( 'NONE',  ( 11.00000000000000000, 0.000000000000000000, 5.000000000000000000 ) ) ;
#206 = DIRECTION ( 'NONE',  ( 0.000000000000000000, 0.000000000000000000, 1.000000000000000000 ) ) ;
#207 = PRODUCT_RELATED_PRODUCT_CATEGORY ( 'detail', '', ( #126 ) ) ;
#208 = CIRCLE ( 'NONE', #48, 5.000000000000000000 ) ;
#209 = DIRECTION ( 'NONE',  ( 0.000000000000000000, 0.000000000000000000, -1.000000000000000000 ) ) ;
#210 = CONICAL_SURFACE ( 'NONE', #167, 5.000000000000000000, 0.2234766011406330022 ) ;
#211 = ORIENTED_EDGE ( 'NONE', *, *, #132, .F. ) ;
#212 = ORIENTED_EDGE ( 'NONE', *, *, #53, .F. ) ;
#213 = ADVANCED_BREP_SHAPE_REPRESENTATION ( '3D_M2060_15-10_174121010', ( #159, #224 ), #49 ) ;
#214 = CARTESIAN_POINT ( 'NONE',  ( 11.00000000000000000, 0.000000000000000000, 0.000000000000000000 ) ) ;
#215 = FACE_OUTER_BOUND ( 'NONE', #246, .T. ) ;
#216 = CARTESIAN_POINT ( 'NONE',  ( 11.00000000000000000, 3.061616997868383141E-16, 5.000000000000000000 ) ) ;
#217 = APPLICATION_CONTEXT ( 'configuration controlled 3d designs of mechanical parts and assemblies' ) ;
#218 = CC_DESIGN_PERSON_AND_ORGANIZATION_ASSIGNMENT ( #196, #26, ( #18 ) ) ;
#219 =( LENGTH_UNIT ( ) NAMED_UNIT ( * ) SI_UNIT ( .MILLI., .METRE. ) );
#220 = SHAPE_DEFINITION_REPRESENTATION ( #73, #213 ) ;
#221 = CIRCLE ( 'NONE', #165, 7.500000000000000000 ) ;
#222 = VERTEX_POINT ( 'NONE', #216 ) ;
#223 = ADVANCED_FACE ( 'NONE', ( #174 ), #234, .F. ) ;
#224 = AXIS2_PLACEMENT_3D ( 'NONE', #46, #44, #117 ) ;
#225 = EDGE_CURVE ( 'NONE', #121, #106, #156, .T. ) ;
#226 = CALENDAR_DATE ( 2024, 5, 9 ) ;
#227 = EDGE_LOOP ( 'NONE', ( #125, #191 ) ) ;
#228 = LINE ( 'NONE', #54, #232 ) ;
#229 = ORIENTED_EDGE ( 'NONE', *, *, #90, .T. ) ;
#230 = VERTEX_POINT ( 'NONE', #102 ) ;
#231 = DIRECTION ( 'NONE',  ( 0.000000000000000000, 0.000000000000000000, -1.000000000000000000 ) ) ;
#232 = VECTOR ( 'NONE', #110, 1000.000000000000227 ) ;
#233 = CARTESIAN_POINT ( 'NONE',  ( 0.000000000000000000, 0.000000000000000000, 0.000000000000000000 ) ) ;
#234 = CONICAL_SURFACE ( 'NONE', #177, 3.537300716312810511, 0.2234766011406330022 ) ;
#235 = CARTESIAN_POINT ( 'NONE',  ( 0.000000000000000000, 0.000000000000000000, 0.000000000000000000 ) ) ;
#236 = DIRECTION ( 'NONE',  ( 0.000000000000000000, 0.000000000000000000, -1.000000000000000000 ) ) ;
#237 = APPROVAL_DATE_TIME ( #123, #39 ) ;
#238 = EDGE_LOOP ( 'NONE', ( #30, #162 ) ) ;
#239 = VECTOR ( 'NONE', #36, 1000.000000000000227 ) ;
#240 = ORIENTED_EDGE ( 'NONE', *, *, #225, .F. ) ;
#241 = CC_DESIGN_PERSON_AND_ORGANIZATION_ASSIGNMENT ( #145, #182, ( #133 ) ) ;
#242 = COORDINATED_UNIVERSAL_TIME_OFFSET ( 1, 0, .AHEAD. ) ;
#243 = ORIENTED_EDGE ( 'NONE', *, *, #16, .T. ) ;
#244 = LOCAL_TIME ( 12, 11, 19.00000000000000000, #179 ) ;
#245 = DIRECTION ( 'NONE',  ( 0.000000000000000000, 0.000000000000000000, -1.000000000000000000 ) ) ;
#246 = EDGE_LOOP ( 'NONE', ( #212, #134, #7, #183 ) ) ;
#247 = LINE ( 'NONE', #76, #198 ) ;
#248 = ADVANCED_FACE ( 'NONE', ( #66, #152 ), #192, .F. ) ;
#249 = ORIENTED_EDGE ( 'NONE', *, *, #16, .F. ) ;
ENDSEC;
END-ISO-10303-21;
