ISO-10303-21;
HEADER;
FILE_DESCRIPTION (( 'STEP AP203' ),
    '1' );
FILE_NAME ('3D-M2102P_48.3x2_174114035.STEP',
    '2024-09-05T09:21:59',
    ( '' ),
    ( '' ),
    'SwSTEP 2.0',
    'SolidWorks 2024',
    '' );
FILE_SCHEMA (( 'CONFIG_CONTROL_DESIGN' ));
ENDSEC;

DATA;
#1 = DATE_AND_TIME ( #196, #329 ) ;
#2 = CONICAL_SURFACE ( 'NONE', #399, 28.00000000000000000, 0.2617993877991506846 ) ;
#3 = CARTESIAN_POINT ( 'NONE',  ( 11.00000000000000000, 0.000000000000000000, 0.000000000000000000 ) ) ;
#4 = DIRECTION ( 'NONE',  ( 1.000000000000000000, 0.000000000000000000, 0.000000000000000000 ) ) ;
#5 = ORIENTED_EDGE ( 'NONE', *, *, #239, .T. ) ;
#6 = DIRECTION ( 'NONE',  ( 0.000000000000000000, 0.000000000000000000, 1.000000000000000000 ) ) ;
#7 = ORIENTED_EDGE ( 'NONE', *, *, #135, .F. ) ;
#8 = LINE ( 'NONE', #231, #122 ) ;
#9 = VERTEX_POINT ( 'NONE', #383 ) ;
#10 = AXIS2_PLACEMENT_3D ( 'NONE', #153, #189, #259 ) ;
#11 = VERTEX_POINT ( 'NONE', #129 ) ;
#12 = DIRECTION ( 'NONE',  ( -0.000000000000000000, 0.000000000000000000, 1.000000000000000000 ) ) ;
#13 = ORIENTED_EDGE ( 'NONE', *, *, #346, .T. ) ;
#14 = DIRECTION ( 'NONE',  ( -1.000000000000000000, -0.000000000000000000, -0.000000000000000000 ) ) ;
#15 = CC_DESIGN_PERSON_AND_ORGANIZATION_ASSIGNMENT ( #92, #157, ( #396 ) ) ;
#16 = CARTESIAN_POINT ( 'NONE',  ( -16.64708581120227038, 2.957522019940857930E-15, -24.14999999999999858 ) ) ;
#17 = DIRECTION ( 'NONE',  ( 0.000000000000000000, 0.000000000000000000, 1.000000000000000000 ) ) ;
#18 = ORIENTED_EDGE ( 'NONE', *, *, #79, .T. ) ;
#19 = DIRECTION ( 'NONE',  ( 0.000000000000000000, 0.000000000000000000, 1.000000000000000000 ) ) ;
#20 = ORIENTED_EDGE ( 'NONE', *, *, #239, .F. ) ;
#21 = EDGE_CURVE ( 'NONE', #80, #315, #58, .T. ) ;
#22 = PERSON_AND_ORGANIZATION ( #204, #151 ) ;
#23 = DIRECTION ( 'NONE',  ( 0.000000000000000000, 0.000000000000000000, 1.000000000000000000 ) ) ;
#24 = CIRCLE ( 'NONE', #214, 25.05255888325763536 ) ;
#25 = PERSON_AND_ORGANIZATION ( #204, #151 ) ;
#26 =( GEOMETRIC_REPRESENTATION_CONTEXT ( 3 ) GLOBAL_UNCERTAINTY_ASSIGNED_CONTEXT ( ( #96 ) ) GLOBAL_UNIT_ASSIGNED_CONTEXT ( ( #345, #311, #83 ) ) REPRESENTATION_CONTEXT ( 'NONE', 'WORKASPACE' ) );
#27 = LOCAL_TIME ( 11, 21, 59.00000000000000000, #420 ) ;
#28 = DIRECTION ( 'NONE',  ( -1.000000000000000000, -0.000000000000000000, -0.000000000000000000 ) ) ;
#29 = APPROVAL_STATUS ( 'not_yet_approved' ) ;
#30 = DIRECTION ( 'NONE',  ( -1.000000000000000000, -0.000000000000000000, -0.000000000000000000 ) ) ;
#31 = DIRECTION ( 'NONE',  ( 0.000000000000000000, 0.000000000000000000, 1.000000000000000000 ) ) ;
#32 = AXIS2_PLACEMENT_3D ( 'NONE', #246, #85, #149 ) ;
#33 = DIRECTION ( 'NONE',  ( -1.000000000000000000, -0.000000000000000000, -0.000000000000000000 ) ) ;
#34 = ADVANCED_FACE ( 'NONE', ( #125 ), #159, .F. ) ;
#35 = AXIS2_PLACEMENT_3D ( 'NONE', #130, #263, #343 ) ;
#36 = ORIENTED_EDGE ( 'NONE', *, *, #190, .T. ) ;
#37 = DIRECTION ( 'NONE',  ( -1.000000000000000000, -0.000000000000000000, -0.000000000000000000 ) ) ;
#38 = EDGE_CURVE ( 'NONE', #9, #11, #395, .T. ) ;
#39 = ORIENTED_EDGE ( 'NONE', *, *, #68, .T. ) ;
#40 = DIRECTION ( 'NONE',  ( 0.000000000000000000, 0.000000000000000000, 1.000000000000000000 ) ) ;
#41 = ORIENTED_EDGE ( 'NONE', *, *, #101, .T. ) ;
#42 = ORIENTED_EDGE ( 'NONE', *, *, #227, .F. ) ;
#43 = APPROVAL_PERSON_ORGANIZATION ( #191, #74, #54 ) ;
#44 = LINE ( 'NONE', #222, #300 ) ;
#45 = VERTEX_POINT ( 'NONE', #324 ) ;
#46 = ADVANCED_FACE ( 'NONE', ( #89 ), #115, .F. ) ;
#47 = CARTESIAN_POINT ( 'NONE',  ( 1.000000000000000888, 0.000000000000000000, -19.00000000000000000 ) ) ;
#48 = FACE_OUTER_BOUND ( 'NONE', #121, .T. ) ;
#49 = DIRECTION ( 'NONE',  ( -1.000000000000000000, -0.000000000000000000, -0.000000000000000000 ) ) ;
#50 = CIRCLE ( 'NONE', #106, 19.00000000000000000 ) ;
#51 = DIRECTION ( 'NONE',  ( 0.000000000000000000, 0.000000000000000000, 1.000000000000000000 ) ) ;
#52 = ADVANCED_FACE ( 'NONE', ( #93 ), #2, .T. ) ;
#53 = CARTESIAN_POINT ( 'NONE',  ( -16.64708581120227038, 0.000000000000000000, 0.000000000000000000 ) ) ;
#54 = APPROVAL_ROLE ( '' ) ;
#55 = ORIENTED_EDGE ( 'NONE', *, *, #367, .T. ) ;
#56 = CALENDAR_DATE ( 2024, 5, 9 ) ;
#57 = ORIENTED_EDGE ( 'NONE', *, *, #79, .F. ) ;
#58 = CIRCLE ( 'NONE', #168, 24.14999999999999858 ) ;
#59 = CIRCLE ( 'NONE', #123, 22.14999999999999858 ) ;
#60 = DIRECTION ( 'NONE',  ( -1.000000000000000000, -0.000000000000000000, -0.000000000000000000 ) ) ;
#61 = APPLICATION_PROTOCOL_DEFINITION ( 'international standard', 'config_control_design', 1994, #364 ) ;
#62 = CC_DESIGN_PERSON_AND_ORGANIZATION_ASSIGNMENT ( #22, #188, ( #303 ) ) ;
#63 = DIRECTION ( 'NONE',  ( -1.000000000000000000, -0.000000000000000000, -0.000000000000000000 ) ) ;
#64 = APPROVAL_ROLE ( '' ) ;
#65 = DIRECTION ( 'NONE',  ( 0.000000000000000000, 0.000000000000000000, 1.000000000000000000 ) ) ;
#66 = CIRCLE ( 'NONE', #424, 22.14999999999999858 ) ;
#67 = CIRCLE ( 'NONE', #32, 24.14999999999999858 ) ;
#68 = EDGE_CURVE ( 'NONE', #225, #217, #427, .T. ) ;
#69 = ORIENTED_EDGE ( 'NONE', *, *, #203, .T. ) ;
#70 = FACE_OUTER_BOUND ( 'NONE', #349, .T. ) ;
#71 = AXIS2_PLACEMENT_3D ( 'NONE', #181, #412, #252 ) ;
#72 = ORIENTED_EDGE ( 'NONE', *, *, #331, .F. ) ;
#73 = FACE_OUTER_BOUND ( 'NONE', #114, .T. ) ;
#74 = APPROVAL ( #90, 'UNSPECIFIED' ) ;
#75 = ORIENTED_EDGE ( 'NONE', *, *, #321, .T. ) ;
#76 = DIRECTION ( 'NONE',  ( -1.000000000000000000, 0.000000000000000000, -0.000000000000000000 ) ) ;
#77 = ORIENTED_EDGE ( 'NONE', *, *, #127, .F. ) ;
#78 = DIRECTION ( 'NONE',  ( 0.9914964278645997942, 0.000000000000000000, -0.1301339061572287514 ) ) ;
#79 = EDGE_CURVE ( 'NONE', #211, #139, #353, .T. ) ;
#80 = VERTEX_POINT ( 'NONE', #183 ) ;
#81 = CC_DESIGN_APPROVAL ( #235, ( #82 ) ) ;
#82 = PRODUCT_DEFINITION ( 'UNKNOWN', '', #238, #363 ) ;
#83 =( NAMED_UNIT ( * ) SI_UNIT ( $, .STERADIAN. ) SOLID_ANGLE_UNIT ( ) );
#84 = DIRECTION ( 'NONE',  ( 0.9914964278645997942, 1.593680716359922332E-17, 0.1301339061572287514 ) ) ;
#85 = DIRECTION ( 'NONE',  ( -1.000000000000000000, -0.000000000000000000, -0.000000000000000000 ) ) ;
#86 = EDGE_LOOP ( 'NONE', ( #276, #18, #347, #118 ) ) ;
#87 = ADVANCED_FACE ( 'NONE', ( #351 ), #421, .F. ) ;
#88 = CYLINDRICAL_SURFACE ( 'NONE', #338, 22.14999999999999858 ) ;
#89 = FACE_OUTER_BOUND ( 'NONE', #413, .T. ) ;
#90 = APPROVAL_STATUS ( 'not_yet_approved' ) ;
#91 = VERTEX_POINT ( 'NONE', #47 ) ;
#92 = PERSON_AND_ORGANIZATION ( #204, #151 ) ;
#93 = FACE_OUTER_BOUND ( 'NONE', #171, .T. ) ;
#94 = APPROVAL_DATE_TIME ( #165, #74 ) ;
#95 = CARTESIAN_POINT ( 'NONE',  ( 0.000000000000000000, 3.248532321147897467E-15, 25.05255888325763536 ) ) ;
#96 = UNCERTAINTY_MEASURE_WITH_UNIT (LENGTH_MEASURE( 1.000000000000000082E-05 ), #345, 'distance_accuracy_value', 'NONE');
#97 = PERSON_AND_ORGANIZATION_ROLE ( 'creator' ) ;
#98 = AXIS2_PLACEMENT_3D ( 'NONE', #385, #145, #12 ) ;
#99 = DIRECTION ( 'NONE',  ( -1.000000000000000000, -0.000000000000000000, -0.000000000000000000 ) ) ;
#100 = PLANE ( 'NONE',  #35 ) ;
#101 = EDGE_CURVE ( 'NONE', #80, #104, #318, .T. ) ;
#102 = AXIS2_PLACEMENT_3D ( 'NONE', #333, #30, #198 ) ;
#103 = DIRECTION ( 'NONE',  ( -1.000000000000000000, -0.000000000000000000, -0.000000000000000000 ) ) ;
#104 = VERTEX_POINT ( 'NONE', #185 ) ;
#105 = DIRECTION ( 'NONE',  ( -1.000000000000000000, -0.000000000000000000, -0.000000000000000000 ) ) ;
#106 = AXIS2_PLACEMENT_3D ( 'NONE', #236, #306, #394 ) ;
#107 = LOCAL_TIME ( 11, 21, 59.00000000000000000, #393 ) ;
#108 = ORIENTED_EDGE ( 'NONE', *, *, #202, .T. ) ;
#109 = DIRECTION ( 'NONE',  ( -1.000000000000000000, -0.000000000000000000, -0.000000000000000000 ) ) ;
#110 = VERTEX_POINT ( 'NONE', #156 ) ;
#111 = ADVANCED_FACE ( 'NONE', ( #287 ), #134, .T. ) ;
#112 = ORIENTED_EDGE ( 'NONE', *, *, #254, .F. ) ;
#113 = FACE_BOUND ( 'NONE', #356, .T. ) ;
#114 = EDGE_LOOP ( 'NONE', ( #243, #41, #72, #205 ) ) ;
#115 = CYLINDRICAL_SURFACE ( 'NONE', #206, 22.14999999999999858 ) ;
#116 = ADVANCED_FACE ( 'NONE', ( #207 ), #193, .T. ) ;
#117 = CARTESIAN_POINT ( 'NONE',  ( 11.00000000000000000, 0.000000000000000000, 0.000000000000000000 ) ) ;
#118 = ORIENTED_EDGE ( 'NONE', *, *, #335, .F. ) ;
#119 = CC_DESIGN_PERSON_AND_ORGANIZATION_ASSIGNMENT ( #25, #326, ( #238 ) ) ;
#120 = MECHANICAL_CONTEXT ( 'NONE', #317, 'mechanical' ) ;
#121 = EDGE_LOOP ( 'NONE', ( #158, #13, #411, #112 ) ) ;
#122 = VECTOR ( 'NONE', #99, 1000.000000000000000 ) ;
#123 = AXIS2_PLACEMENT_3D ( 'NONE', #319, #184, #17 ) ;
#124 = CALENDAR_DATE ( 2024, 5, 9 ) ;
#125 = FACE_OUTER_BOUND ( 'NONE', #86, .T. ) ;
#126 = DATE_AND_TIME ( #332, #208 ) ;
#127 = EDGE_CURVE ( 'NONE', #279, #425, #232, .T. ) ;
#128 = CC_DESIGN_DATE_AND_TIME_ASSIGNMENT ( #1, #357, ( #396 ) ) ;
#129 = CARTESIAN_POINT ( 'NONE',  ( 0.000000000000000000, 0.000000000000000000, 19.00000000000000000 ) ) ;
#130 = CARTESIAN_POINT ( 'NONE',  ( 1.833101641387910436E-16, 25.05255888325763536, 0.000000000000000000 ) ) ;
#131 = CIRCLE ( 'NONE', #388, 19.00000000000000000 ) ;
#132 = COORDINATED_UNIVERSAL_TIME_OFFSET ( 1, 0, .AHEAD. ) ;
#133 = CIRCLE ( 'NONE', #304, 28.00000000000000000 ) ;
#134 = CYLINDRICAL_SURFACE ( 'NONE', #380, 24.14999999999999858 ) ;
#135 = EDGE_CURVE ( 'NONE', #104, #245, #143, .T. ) ;
#136 = CARTESIAN_POINT ( 'NONE',  ( 1.000000000000000888, 0.000000000000000000, 0.000000000000000000 ) ) ;
#137 = CIRCLE ( 'NONE', #102, 24.14999999999999858 ) ;
#138 = CC_DESIGN_SECURITY_CLASSIFICATION ( #396, ( #238 ) ) ;
#139 = VERTEX_POINT ( 'NONE', #169 ) ;
#140 = CARTESIAN_POINT ( 'NONE',  ( 0.000000000000000000, 0.000000000000000000, 0.000000000000000000 ) ) ;
#141 = ORIENTED_EDGE ( 'NONE', *, *, #38, .F. ) ;
#142 = CYLINDRICAL_SURFACE ( 'NONE', #267, 19.00000000000000000 ) ;
#143 = CIRCLE ( 'NONE', #289, 24.14999999999999858 ) ;
#144 = EDGE_LOOP ( 'NONE', ( #309, #39, #148, #257 ) ) ;
#145 = DIRECTION ( 'NONE',  ( -1.000000000000000000, 0.000000000000000000, -0.000000000000000000 ) ) ;
#146 = ORIENTED_EDGE ( 'NONE', *, *, #335, .T. ) ;
#147 = CARTESIAN_POINT ( 'NONE',  ( 11.00000000000000000, 0.000000000000000000, -28.00000000000000000 ) ) ;
#148 = ORIENTED_EDGE ( 'NONE', *, *, #391, .T. ) ;
#149 = DIRECTION ( 'NONE',  ( 0.000000000000000000, 0.000000000000000000, 1.000000000000000000 ) ) ;
#150 = ORIENTED_EDGE ( 'NONE', *, *, #422, .T. ) ;
#151 = ORGANIZATION ( 'UNSPECIFIED', 'UNSPECIFIED', '' ) ;
#152 = DIRECTION ( 'NONE',  ( 1.000000000000000000, 0.000000000000000000, 0.000000000000000000 ) ) ;
#153 = CARTESIAN_POINT ( 'NONE',  ( 0.000000000000000000, 0.000000000000000000, 0.000000000000000000 ) ) ;
#154 = CC_DESIGN_DATE_AND_TIME_ASSIGNMENT ( #387, #295, ( #82 ) ) ;
#155 = CALENDAR_DATE ( 2024, 5, 9 ) ;
#156 = CARTESIAN_POINT ( 'NONE',  ( 11.00000000000000000, 0.000000000000000000, -28.00000000000000000 ) ) ;
#157 = PERSON_AND_ORGANIZATION_ROLE ( 'classification_officer' ) ;
#158 = ORIENTED_EDGE ( 'NONE', *, *, #197, .F. ) ;
#159 = CONICAL_SURFACE ( 'NONE', #414, 19.00000000000000000, 0.1305040331103882734 ) ;
#160 = AXIS2_PLACEMENT_3D ( 'NONE', #415, #76, #354 ) ;
#161 = APPLICATION_PROTOCOL_DEFINITION ( 'international standard', 'config_control_design', 1994, #317 ) ;
#162 = EDGE_LOOP ( 'NONE', ( #20, #141 ) ) ;
#163 = DATE_AND_TIME ( #155, #27 ) ;
#164 = FACE_BOUND ( 'NONE', #162, .T. ) ;
#165 = DATE_AND_TIME ( #124, #215 ) ;
#166 = EDGE_CURVE ( 'NONE', #211, #91, #131, .T. ) ;
#167 = DIRECTION ( 'NONE',  ( -1.000000000000000000, -0.000000000000000000, -0.000000000000000000 ) ) ;
#168 = AXIS2_PLACEMENT_3D ( 'NONE', #282, #386, #23 ) ;
#169 = CARTESIAN_POINT ( 'NONE',  ( 24.99999999999999289, 0.000000000000000000, 22.14999999999999858 ) ) ;
#170 = VECTOR ( 'NONE', #49, 1000.000000000000000 ) ;
#171 = EDGE_LOOP ( 'NONE', ( #274, #403, #241, #55 ) ) ;
#172 = LINE ( 'NONE', #242, #299 ) ;
#173 = ORIENTED_EDGE ( 'NONE', *, *, #367, .F. ) ;
#174 = CARTESIAN_POINT ( 'NONE',  ( 11.00000000000000000, 3.429011037612589276E-15, 28.00000000000000000 ) ) ;
#175 = ADVANCED_FACE ( 'NONE', ( #164, #70 ), #100, .F. ) ;
#176 = EDGE_LOOP ( 'NONE', ( #77, #374, #358, #377 ) ) ;
#177 = LINE ( 'NONE', #147, #258 ) ;
#178 = AXIS2_PLACEMENT_3D ( 'NONE', #53, #187, #416 ) ;
#179 = CONICAL_SURFACE ( 'NONE', #361, 19.00000000000000000, 0.1305040331103882734 ) ;
#180 = ORIENTED_EDGE ( 'NONE', *, *, #21, .F. ) ;
#181 = CARTESIAN_POINT ( 'NONE',  ( 11.00000000000000000, 0.000000000000000000, 0.000000000000000000 ) ) ;
#182 = ORIENTED_EDGE ( 'NONE', *, *, #254, .T. ) ;
#183 = CARTESIAN_POINT ( 'NONE',  ( 26.00000000000000355, 2.957522019940857930E-15, -24.14999999999999858 ) ) ;
#184 = DIRECTION ( 'NONE',  ( -1.000000000000000000, -0.000000000000000000, -0.000000000000000000 ) ) ;
#185 = CARTESIAN_POINT ( 'NONE',  ( 11.00000000000000000, 2.957522019940857930E-15, -24.14999999999999858 ) ) ;
#186 = FACE_OUTER_BOUND ( 'NONE', #419, .T. ) ;
#187 = DIRECTION ( 'NONE',  ( -1.000000000000000000, -0.000000000000000000, -0.000000000000000000 ) ) ;
#188 = PERSON_AND_ORGANIZATION_ROLE ( 'design_owner' ) ;
#189 = DIRECTION ( 'NONE',  ( -1.000000000000000000, -0.000000000000000000, -0.000000000000000000 ) ) ;
#190 = EDGE_CURVE ( 'NONE', #425, #139, #172, .T. ) ;
#191 = PERSON_AND_ORGANIZATION ( #204, #151 ) ;
#192 = DIRECTION ( 'NONE',  ( 0.000000000000000000, 0.000000000000000000, -1.000000000000000000 ) ) ;
#193 = CONICAL_SURFACE ( 'NONE', #320, 28.00000000000000000, 0.2617993877991506846 ) ;
#194 = DIRECTION ( 'NONE',  ( 1.000000000000000000, 0.000000000000000000, 0.000000000000000000 ) ) ;
#195 = DIRECTION ( 'NONE',  ( -1.000000000000000000, -0.000000000000000000, -0.000000000000000000 ) ) ;
#196 = CALENDAR_DATE ( 2024, 5, 9 ) ;
#197 = EDGE_CURVE ( 'NONE', #91, #211, #50, .T. ) ;
#198 = DIRECTION ( 'NONE',  ( 0.000000000000000000, 0.000000000000000000, 1.000000000000000000 ) ) ;
#199 = PERSON_AND_ORGANIZATION ( #204, #151 ) ;
#200 = DIRECTION ( 'NONE',  ( 0.000000000000000000, 0.000000000000000000, 1.000000000000000000 ) ) ;
#201 = APPROVAL_PERSON_ORGANIZATION ( #260, #370, #288 ) ;
#202 = EDGE_CURVE ( 'NONE', #225, #45, #281, .T. ) ;
#203 = EDGE_CURVE ( 'NONE', #45, #225, #24, .T. ) ;
#204 = PERSON ( 'UNSPECIFIED', 'UNSPECIFIED', 'UNSPECIFIED', ('UNSPECIFIED'), ('UNSPECIFIED'), ('UNSPECIFIED') ) ;
#205 = ORIENTED_EDGE ( 'NONE', *, *, #422, .F. ) ;
#206 = AXIS2_PLACEMENT_3D ( 'NONE', #251, #28, #392 ) ;
#207 = FACE_OUTER_BOUND ( 'NONE', #144, .T. ) ;
#208 = LOCAL_TIME ( 11, 21, 59.00000000000000000, #426 ) ;
#209 = ORIENTED_EDGE ( 'NONE', *, *, #269, .F. ) ;
#210 = CYLINDRICAL_SURFACE ( 'NONE', #328, 24.14999999999999858 ) ;
#211 = VERTEX_POINT ( 'NONE', #336 ) ;
#212 = CARTESIAN_POINT ( 'NONE',  ( -16.64708581120227038, 0.000000000000000000, 24.14999999999999858 ) ) ;
#213 = LINE ( 'NONE', #283, #355 ) ;
#214 = AXIS2_PLACEMENT_3D ( 'NONE', #271, #60, #297 ) ;
#215 = LOCAL_TIME ( 11, 21, 59.00000000000000000, #132 ) ;
#216 = AXIS2_PLACEMENT_3D ( 'NONE', #234, #19, #194 ) ;
#217 = VERTEX_POINT ( 'NONE', #174 ) ;
#218 = CARTESIAN_POINT ( 'NONE',  ( 26.00000000000000355, 0.000000000000000000, 22.14999999999999858 ) ) ;
#219 = CARTESIAN_POINT ( 'NONE',  ( 11.00000000000000000, 3.429011037612589276E-15, 28.00000000000000000 ) ) ;
#220 = DIRECTION ( 'NONE',  ( 0.000000000000000000, 0.000000000000000000, 1.000000000000000000 ) ) ;
#221 = DIRECTION ( 'NONE',  ( 0.9659258262890678681, 3.169619151431779116E-17, 0.2588190451025219052 ) ) ;
#222 = CARTESIAN_POINT ( 'NONE',  ( 1.000000000000000888, 0.000000000000000000, -19.00000000000000000 ) ) ;
#223 = ADVANCED_BREP_SHAPE_REPRESENTATION ( '3D-M2102P_48.3x2_174114035', ( #293, #216 ), #26 ) ;
#224 = CIRCLE ( 'NONE', #337, 22.14999999999999858 ) ;
#225 = VERTEX_POINT ( 'NONE', #95 ) ;
#226 = PERSON_AND_ORGANIZATION ( #204, #151 ) ;
#227 = EDGE_CURVE ( 'NONE', #425, #279, #224, .T. ) ;
#228 = ORIENTED_EDGE ( 'NONE', *, *, #391, .F. ) ;
#229 = CARTESIAN_POINT ( 'NONE',  ( 11.00000000000000000, 0.000000000000000000, 0.000000000000000000 ) ) ;
#230 = COORDINATED_UNIVERSAL_TIME_OFFSET ( 1, 0, .AHEAD. ) ;
#231 = CARTESIAN_POINT ( 'NONE',  ( -16.64708581120227038, 0.000000000000000000, 19.00000000000000000 ) ) ;
#232 = CIRCLE ( 'NONE', #272, 22.14999999999999858 ) ;
#233 = DIRECTION ( 'NONE',  ( 0.000000000000000000, 0.000000000000000000, 1.000000000000000000 ) ) ;
#234 = CARTESIAN_POINT ( 'NONE',  ( 0.000000000000000000, 0.000000000000000000, 0.000000000000000000 ) ) ;
#235 = APPROVAL ( #29, 'UNSPECIFIED' ) ;
#236 = CARTESIAN_POINT ( 'NONE',  ( 1.000000000000000888, 0.000000000000000000, 0.000000000000000000 ) ) ;
#237 = VECTOR ( 'NONE', #63, 1000.000000000000000 ) ;
#238 = PRODUCT_DEFINITION_FORMATION_WITH_SPECIFIED_SOURCE ( 'ANY', '', #303, .NOT_KNOWN. ) ;
#239 = EDGE_CURVE ( 'NONE', #11, #9, #266, .T. ) ;
#240 = DIRECTION ( 'NONE',  ( -1.000000000000000000, -0.000000000000000000, -0.000000000000000000 ) ) ;
#241 = ORIENTED_EDGE ( 'NONE', *, *, #376, .T. ) ;
#242 = CARTESIAN_POINT ( 'NONE',  ( -16.64708581120227038, 0.000000000000000000, 22.14999999999999858 ) ) ;
#243 = ORIENTED_EDGE ( 'NONE', *, *, #296, .T. ) ;
#244 = DIRECTION ( 'NONE',  ( 0.000000000000000000, 0.000000000000000000, 1.000000000000000000 ) ) ;
#245 = VERTEX_POINT ( 'NONE', #308 ) ;
#246 = CARTESIAN_POINT ( 'NONE',  ( 11.00000000000000000, 0.000000000000000000, 0.000000000000000000 ) ) ;
#247 = DIRECTION ( 'NONE',  ( -1.000000000000000000, -0.000000000000000000, -0.000000000000000000 ) ) ;
#248 = EDGE_CURVE ( 'NONE', #405, #139, #66, .T. ) ;
#249 = EDGE_LOOP ( 'NONE', ( #173, #228 ) ) ;
#250 = DIRECTION ( 'NONE',  ( -1.000000000000000000, -0.000000000000000000, -0.000000000000000000 ) ) ;
#251 = CARTESIAN_POINT ( 'NONE',  ( -16.64708581120227038, 0.000000000000000000, 0.000000000000000000 ) ) ;
#252 = DIRECTION ( 'NONE',  ( 0.000000000000000000, 0.000000000000000000, 1.000000000000000000 ) ) ;
#253 = EDGE_LOOP ( 'NONE', ( #270, #313 ) ) ;
#254 = EDGE_CURVE ( 'NONE', #211, #11, #8, .T. ) ;
#255 = PERSON_AND_ORGANIZATION ( #204, #151 ) ;
#256 = AXIS2_PLACEMENT_3D ( 'NONE', #140, #33, #40 ) ;
#257 = ORIENTED_EDGE ( 'NONE', *, *, #376, .F. ) ;
#258 = VECTOR ( 'NONE', #280, 1000.000000000000114 ) ;
#259 = DIRECTION ( 'NONE',  ( 0.000000000000000000, 0.000000000000000000, 1.000000000000000000 ) ) ;
#260 = PERSON_AND_ORGANIZATION ( #204, #151 ) ;
#261 = CARTESIAN_POINT ( 'NONE',  ( -16.64708581120227038, 2.712592660111387239E-15, -22.14999999999999858 ) ) ;
#262 = APPROVAL_DATE_TIME ( #126, #370 ) ;
#263 = DIRECTION ( 'NONE',  ( 1.000000000000000000, 0.000000000000000000, 0.000000000000000000 ) ) ;
#264 = VECTOR ( 'NONE', #84, 1000.000000000000000 ) ;
#265 = DIRECTION ( 'NONE',  ( 0.000000000000000000, 0.000000000000000000, -1.000000000000000000 ) ) ;
#266 = CIRCLE ( 'NONE', #256, 19.00000000000000000 ) ;
#267 = AXIS2_PLACEMENT_3D ( 'NONE', #316, #418, #220 ) ;
#268 = CARTESIAN_POINT ( 'NONE',  ( 0.000000000000000000, 0.000000000000000000, 0.000000000000000000 ) ) ;
#269 = EDGE_CURVE ( 'NONE', #279, #405, #366, .T. ) ;
#270 = ORIENTED_EDGE ( 'NONE', *, *, #227, .T. ) ;
#271 = CARTESIAN_POINT ( 'NONE',  ( 0.000000000000000000, 0.000000000000000000, 0.000000000000000000 ) ) ;
#272 = AXIS2_PLACEMENT_3D ( 'NONE', #334, #240, #429 ) ;
#273 = FACE_OUTER_BOUND ( 'NONE', #176, .T. ) ;
#274 = ORIENTED_EDGE ( 'NONE', *, *, #68, .F. ) ;
#275 = CARTESIAN_POINT ( 'NONE',  ( 24.99999999999999289, 2.712592660111387239E-15, -22.14999999999999858 ) ) ;
#276 = ORIENTED_EDGE ( 'NONE', *, *, #197, .T. ) ;
#277 = PLANE ( 'NONE',  #98 ) ;
#278 = CC_DESIGN_PERSON_AND_ORGANIZATION_ASSIGNMENT ( #255, #97, ( #82 ) ) ;
#279 = VERTEX_POINT ( 'NONE', #373 ) ;
#280 = DIRECTION ( 'NONE',  ( 0.9659258262890678681, 0.000000000000000000, -0.2588190451025219052 ) ) ;
#281 = CIRCLE ( 'NONE', #406, 25.05255888325763536 ) ;
#282 = CARTESIAN_POINT ( 'NONE',  ( 26.00000000000000355, 0.000000000000000000, 0.000000000000000000 ) ) ;
#283 = CARTESIAN_POINT ( 'NONE',  ( -16.64708581120227038, 2.326828918379970970E-15, -19.00000000000000000 ) ) ;
#284 = DIRECTION ( 'NONE',  ( 1.000000000000000000, 0.000000000000000000, 0.000000000000000000 ) ) ;
#285 = ADVANCED_FACE ( 'NONE', ( #73 ), #210, .T. ) ;
#286 = APPROVAL_DATE_TIME ( #163, #235 ) ;
#287 = FACE_OUTER_BOUND ( 'NONE', #290, .T. ) ;
#288 = APPROVAL_ROLE ( '' ) ;
#289 = AXIS2_PLACEMENT_3D ( 'NONE', #371, #167, #200 ) ;
#290 = EDGE_LOOP ( 'NONE', ( #322, #379, #150, #7 ) ) ;
#291 = CC_DESIGN_APPROVAL ( #370, ( #396 ) ) ;
#292 = APPROVAL_STATUS ( 'not_yet_approved' ) ;
#293 = MANIFOLD_SOLID_BREP ( 'Rotation1', #310 ) ;
#294 = DIRECTION ( 'NONE',  ( 1.000000000000000000, 0.000000000000000000, 0.000000000000000000 ) ) ;
#295 = DATE_TIME_ROLE ( 'creation_date' ) ;
#296 = EDGE_CURVE ( 'NONE', #315, #80, #137, .T. ) ;
#297 = DIRECTION ( 'NONE',  ( 0.000000000000000000, 0.000000000000000000, 1.000000000000000000 ) ) ;
#298 = DIRECTION ( 'NONE',  ( -1.000000000000000000, -0.000000000000000000, -0.000000000000000000 ) ) ;
#299 = VECTOR ( 'NONE', #105, 1000.000000000000000 ) ;
#300 = VECTOR ( 'NONE', #78, 1000.000000000000000 ) ;
#301 = DIRECTION ( 'NONE',  ( -1.000000000000000000, -0.000000000000000000, -0.000000000000000000 ) ) ;
#302 = ADVANCED_FACE ( 'NONE', ( #48 ), #142, .F. ) ;
#303 = PRODUCT ( '3D-M2102P_48.3x2_174114035', '3D-M2102P_48.3x2_174114035', '', ( #120 ) ) ;
#304 = AXIS2_PLACEMENT_3D ( 'NONE', #117, #250, #51 ) ;
#305 = ORIENTED_EDGE ( 'NONE', *, *, #135, .T. ) ;
#306 = DIRECTION ( 'NONE',  ( -1.000000000000000000, -0.000000000000000000, -0.000000000000000000 ) ) ;
#307 = EDGE_LOOP ( 'NONE', ( #342, #180 ) ) ;
#308 = CARTESIAN_POINT ( 'NONE',  ( 11.00000000000000000, 0.000000000000000000, 24.14999999999999858 ) ) ;
#309 = ORIENTED_EDGE ( 'NONE', *, *, #202, .F. ) ;
#310 = CLOSED_SHELL ( 'NONE', ( #285, #116, #302, #34, #401, #46, #384, #87, #175, #52, #408, #111, #341 ) ) ;
#311 =( NAMED_UNIT ( * ) PLANE_ANGLE_UNIT ( ) SI_UNIT ( $, .RADIAN. ) );
#312 = APPROVAL_PERSON_ORGANIZATION ( #199, #235, #64 ) ;
#313 = ORIENTED_EDGE ( 'NONE', *, *, #127, .T. ) ;
#314 = FACE_OUTER_BOUND ( 'NONE', #249, .T. ) ;
#315 = VERTEX_POINT ( 'NONE', #352 ) ;
#316 = CARTESIAN_POINT ( 'NONE',  ( -16.64708581120227038, 0.000000000000000000, 0.000000000000000000 ) ) ;
#317 = APPLICATION_CONTEXT ( 'configuration controlled 3d designs of mechanical parts and assemblies' ) ;
#318 = LINE ( 'NONE', #16, #170 ) ;
#319 = CARTESIAN_POINT ( 'NONE',  ( 24.99999999999999289, 0.000000000000000000, 0.000000000000000000 ) ) ;
#320 = AXIS2_PLACEMENT_3D ( 'NONE', #3, #4, #265 ) ;
#321 = EDGE_CURVE ( 'NONE', #139, #405, #59, .T. ) ;
#322 = ORIENTED_EDGE ( 'NONE', *, *, #101, .F. ) ;
#323 = CARTESIAN_POINT ( 'NONE',  ( 1.000000000000000888, 0.000000000000000000, 0.000000000000000000 ) ) ;
#324 = CARTESIAN_POINT ( 'NONE',  ( 0.000000000000000000, 0.000000000000000000, -25.05255888325763536 ) ) ;
#325 = CC_DESIGN_PERSON_AND_ORGANIZATION_ASSIGNMENT ( #226, #365, ( #238 ) ) ;
#326 = PERSON_AND_ORGANIZATION_ROLE ( 'creator' ) ;
#327 = ORIENTED_EDGE ( 'NONE', *, *, #321, .F. ) ;
#328 = AXIS2_PLACEMENT_3D ( 'NONE', #362, #195, #233 ) ;
#329 = LOCAL_TIME ( 11, 21, 59.00000000000000000, #230 ) ;
#330 = CARTESIAN_POINT ( 'NONE',  ( 1.000000000000000888, 2.326828918379970970E-15, 19.00000000000000000 ) ) ;
#331 = EDGE_CURVE ( 'NONE', #245, #104, #67, .T. ) ;
#332 = CALENDAR_DATE ( 2024, 5, 9 ) ;
#333 = CARTESIAN_POINT ( 'NONE',  ( 26.00000000000000355, 0.000000000000000000, 0.000000000000000000 ) ) ;
#334 = CARTESIAN_POINT ( 'NONE',  ( 26.00000000000000355, 0.000000000000000000, 0.000000000000000000 ) ) ;
#335 = EDGE_CURVE ( 'NONE', #91, #405, #44, .T. ) ;
#336 = CARTESIAN_POINT ( 'NONE',  ( 1.000000000000000888, 2.519710789245679302E-15, 19.00000000000000000 ) ) ;
#337 = AXIS2_PLACEMENT_3D ( 'NONE', #368, #298, #6 ) ;
#338 = AXIS2_PLACEMENT_3D ( 'NONE', #409, #109, #244 ) ;
#339 = EDGE_LOOP ( 'NONE', ( #390, #410, #182, #5 ) ) ;
#340 = CARTESIAN_POINT ( 'NONE',  ( -16.64708581120227038, 0.000000000000000000, 0.000000000000000000 ) ) ;
#341 = ADVANCED_FACE ( 'NONE', ( #378, #350 ), #277, .F. ) ;
#342 = ORIENTED_EDGE ( 'NONE', *, *, #296, .F. ) ;
#343 = DIRECTION ( 'NONE',  ( 0.000000000000000000, 0.000000000000000000, -1.000000000000000000 ) ) ;
#344 = ORIENTED_EDGE ( 'NONE', *, *, #331, .T. ) ;
#345 =( LENGTH_UNIT ( ) NAMED_UNIT ( * ) SI_UNIT ( .MILLI., .METRE. ) );
#346 = EDGE_CURVE ( 'NONE', #91, #9, #213, .T. ) ;
#347 = ORIENTED_EDGE ( 'NONE', *, *, #248, .F. ) ;
#348 = DIRECTION ( 'NONE',  ( 0.000000000000000000, 0.000000000000000000, -1.000000000000000000 ) ) ;
#349 = EDGE_LOOP ( 'NONE', ( #69, #108 ) ) ;
#350 = FACE_BOUND ( 'NONE', #253, .T. ) ;
#351 = FACE_OUTER_BOUND ( 'NONE', #339, .T. ) ;
#352 = CARTESIAN_POINT ( 'NONE',  ( 26.00000000000000355, 0.000000000000000000, 24.14999999999999858 ) ) ;
#353 = LINE ( 'NONE', #330, #264 ) ;
#354 = DIRECTION ( 'NONE',  ( -0.000000000000000000, 0.000000000000000000, 1.000000000000000000 ) ) ;
#355 = VECTOR ( 'NONE', #14, 1000.000000000000000 ) ;
#356 = EDGE_LOOP ( 'NONE', ( #344, #305 ) ) ;
#357 = DATE_TIME_ROLE ( 'classification_date' ) ;
#358 = ORIENTED_EDGE ( 'NONE', *, *, #248, .T. ) ;
#359 = CARTESIAN_POINT ( 'NONE',  ( 1.000000000000000888, 0.000000000000000000, 0.000000000000000000 ) ) ;
#360 = VECTOR ( 'NONE', #221, 1000.000000000000114 ) ;
#361 = AXIS2_PLACEMENT_3D ( 'NONE', #323, #152, #348 ) ;
#362 = CARTESIAN_POINT ( 'NONE',  ( -16.64708581120227038, 0.000000000000000000, 0.000000000000000000 ) ) ;
#363 = DESIGN_CONTEXT ( 'detailed design', #364, 'design' ) ;
#364 = APPLICATION_CONTEXT ( 'configuration controlled 3d designs of mechanical parts and assemblies' ) ;
#365 = PERSON_AND_ORGANIZATION_ROLE ( 'design_supplier' ) ;
#366 = LINE ( 'NONE', #261, #237 ) ;
#367 = EDGE_CURVE ( 'NONE', #110, #217, #133, .T. ) ;
#368 = CARTESIAN_POINT ( 'NONE',  ( 26.00000000000000355, 0.000000000000000000, 0.000000000000000000 ) ) ;
#369 = VECTOR ( 'NONE', #247, 1000.000000000000000 ) ;
#370 = APPROVAL ( #292, 'UNSPECIFIED' ) ;
#371 = CARTESIAN_POINT ( 'NONE',  ( 11.00000000000000000, 0.000000000000000000, 0.000000000000000000 ) ) ;
#372 = ORIENTED_EDGE ( 'NONE', *, *, #166, .T. ) ;
#373 = CARTESIAN_POINT ( 'NONE',  ( 26.00000000000000355, 2.712592660111387239E-15, -22.14999999999999858 ) ) ;
#374 = ORIENTED_EDGE ( 'NONE', *, *, #269, .T. ) ;
#375 = PLANE ( 'NONE',  #160 ) ;
#376 = EDGE_CURVE ( 'NONE', #45, #110, #177, .T. ) ;
#377 = ORIENTED_EDGE ( 'NONE', *, *, #190, .F. ) ;
#378 = FACE_OUTER_BOUND ( 'NONE', #307, .T. ) ;
#379 = ORIENTED_EDGE ( 'NONE', *, *, #21, .T. ) ;
#380 = AXIS2_PLACEMENT_3D ( 'NONE', #340, #37, #65 ) ;
#381 = DIRECTION ( 'NONE',  ( 0.000000000000000000, 0.000000000000000000, -1.000000000000000000 ) ) ;
#382 = LINE ( 'NONE', #212, #369 ) ;
#383 = CARTESIAN_POINT ( 'NONE',  ( 0.000000000000000000, 2.326828918379970970E-15, -19.00000000000000000 ) ) ;
#384 = ADVANCED_FACE ( 'NONE', ( #186 ), #179, .F. ) ;
#385 = CARTESIAN_POINT ( 'NONE',  ( 26.00000000000000000, 24.14999999999999858, 0.000000000000000000 ) ) ;
#386 = DIRECTION ( 'NONE',  ( -1.000000000000000000, -0.000000000000000000, -0.000000000000000000 ) ) ;
#387 = DATE_AND_TIME ( #56, #107 ) ;
#388 = AXIS2_PLACEMENT_3D ( 'NONE', #136, #398, #402 ) ;
#389 = CIRCLE ( 'NONE', #71, 28.00000000000000000 ) ;
#390 = ORIENTED_EDGE ( 'NONE', *, *, #346, .F. ) ;
#391 = EDGE_CURVE ( 'NONE', #217, #110, #389, .T. ) ;
#392 = DIRECTION ( 'NONE',  ( 0.000000000000000000, 0.000000000000000000, 1.000000000000000000 ) ) ;
#393 = COORDINATED_UNIVERSAL_TIME_OFFSET ( 1, 0, .AHEAD. ) ;
#394 = DIRECTION ( 'NONE',  ( 0.000000000000000000, 0.000000000000000000, 1.000000000000000000 ) ) ;
#395 = CIRCLE ( 'NONE', #10, 19.00000000000000000 ) ;
#396 = SECURITY_CLASSIFICATION ( '', '', #428 ) ;
#397 = DIRECTION ( 'NONE',  ( 0.000000000000000000, 0.000000000000000000, 1.000000000000000000 ) ) ;
#398 = DIRECTION ( 'NONE',  ( -1.000000000000000000, -0.000000000000000000, -0.000000000000000000 ) ) ;
#399 = AXIS2_PLACEMENT_3D ( 'NONE', #229, #294, #192 ) ;
#400 = PRODUCT_DEFINITION_SHAPE ( 'NONE', 'NONE',  #82 ) ;
#401 = ADVANCED_FACE ( 'NONE', ( #273 ), #88, .F. ) ;
#402 = DIRECTION ( 'NONE',  ( 0.000000000000000000, 0.000000000000000000, 1.000000000000000000 ) ) ;
#403 = ORIENTED_EDGE ( 'NONE', *, *, #203, .F. ) ;
#404 = CARTESIAN_POINT ( 'NONE',  ( 24.99999999999999289, 0.000000000000000000, 0.000000000000000000 ) ) ;
#405 = VERTEX_POINT ( 'NONE', #275 ) ;
#406 = AXIS2_PLACEMENT_3D ( 'NONE', #268, #103, #31 ) ;
#407 = CC_DESIGN_APPROVAL ( #74, ( #238 ) ) ;
#408 = ADVANCED_FACE ( 'NONE', ( #314, #113 ), #375, .F. ) ;
#409 = CARTESIAN_POINT ( 'NONE',  ( -16.64708581120227038, 0.000000000000000000, 0.000000000000000000 ) ) ;
#410 = ORIENTED_EDGE ( 'NONE', *, *, #166, .F. ) ;
#411 = ORIENTED_EDGE ( 'NONE', *, *, #38, .T. ) ;
#412 = DIRECTION ( 'NONE',  ( -1.000000000000000000, -0.000000000000000000, -0.000000000000000000 ) ) ;
#413 = EDGE_LOOP ( 'NONE', ( #209, #42, #36, #75 ) ) ;
#414 = AXIS2_PLACEMENT_3D ( 'NONE', #359, #284, #381 ) ;
#415 = CARTESIAN_POINT ( 'NONE',  ( 11.00000000000000000, 24.14999999999999858, 0.000000000000000000 ) ) ;
#416 = DIRECTION ( 'NONE',  ( 0.000000000000000000, 0.000000000000000000, 1.000000000000000000 ) ) ;
#417 = PRODUCT_RELATED_PRODUCT_CATEGORY ( 'detail', '', ( #303 ) ) ;
#418 = DIRECTION ( 'NONE',  ( -1.000000000000000000, -0.000000000000000000, -0.000000000000000000 ) ) ;
#419 = EDGE_LOOP ( 'NONE', ( #57, #372, #146, #327 ) ) ;
#420 = COORDINATED_UNIVERSAL_TIME_OFFSET ( 1, 0, .AHEAD. ) ;
#421 = CYLINDRICAL_SURFACE ( 'NONE', #178, 19.00000000000000000 ) ;
#422 = EDGE_CURVE ( 'NONE', #315, #245, #382, .T. ) ;
#423 = SHAPE_DEFINITION_REPRESENTATION ( #400, #223 ) ;
#424 = AXIS2_PLACEMENT_3D ( 'NONE', #404, #301, #397 ) ;
#425 = VERTEX_POINT ( 'NONE', #218 ) ;
#426 = COORDINATED_UNIVERSAL_TIME_OFFSET ( 1, 0, .AHEAD. ) ;
#427 = LINE ( 'NONE', #219, #360 ) ;
#428 = SECURITY_CLASSIFICATION_LEVEL ( 'unclassified' ) ;
#429 = DIRECTION ( 'NONE',  ( 0.000000000000000000, 0.000000000000000000, 1.000000000000000000 ) ) ;
ENDSEC;
END-ISO-10303-21;
