ISO-10303-21;
HEADER;
/* Generated by software containing ST-Developer
 * from STEP Tools, Inc. (www.steptools.com) 
 */

FILE_DESCRIPTION(
/* description */ ('MEZZOMANICOTTO A SALDARE DN28 (INOXPRES)'),
/* implementation_level */ '2;1');

FILE_NAME(
/* name */ 
'R:\\Disegni3D_Area_Manager\\Inoxpres.step\\187_R_INOXPRES\\187028000R
_Inoxpres.stp',
/* time_stamp */ '2022-10-11T16:46:52+02:00',
/* author */ ('Vault'),
/* organization */ ('Raccorderie metalliche s.p.a. '),
/* preprocessor_version */ 'ST-DEVELOPER v18.1',
/* originating_system */ 'Autodesk Inventor 2020',
/* authorisation */ 'Raccorderie metalliche s.p.a. ');

FILE_SCHEMA (('AUTOMOTIVE_DESIGN { 1 0 10303 214 3 1 1 }'));
ENDSEC;

DATA;
#10=MECHANICAL_DESIGN_GEOMETRIC_PRESENTATION_REPRESENTATION('',(#13),#576);
#11=SHAPE_REPRESENTATION_RELATIONSHIP('SRR','None',#583,#12);
#12=ADVANCED_BREP_SHAPE_REPRESENTATION('',(#14),#575);
#13=STYLED_ITEM('',(#592),#14);
#14=MANIFOLD_SOLID_BREP('Solido1',#294);
#15=FACE_BOUND('',#61,.T.);
#16=PLANE('',#353);
#17=CONICAL_SURFACE('',#335,14.775,0.523598775598297);
#18=LINE('',#499,#25);
#19=LINE('',#517,#26);
#20=LINE('',#519,#27);
#21=LINE('',#530,#28);
#22=LINE('',#546,#29);
#23=LINE('',#561,#30);
#24=LINE('',#572,#31);
#25=VECTOR('',#388,14.4);
#26=VECTOR('',#411,14.4);
#27=VECTOR('',#414,14.775);
#28=VECTOR('',#427,14.2);
#29=VECTOR('',#446,13.5);
#30=VECTOR('',#463,15.);
#31=VECTOR('',#478,15.7);
#32=CYLINDRICAL_SURFACE('',#322,14.4);
#33=CYLINDRICAL_SURFACE('',#332,14.4);
#34=CYLINDRICAL_SURFACE('',#341,14.2);
#35=CYLINDRICAL_SURFACE('',#350,13.5);
#36=CYLINDRICAL_SURFACE('',#356,15.);
#37=CYLINDRICAL_SURFACE('',#365,15.7);
#38=FACE_OUTER_BOUND('',#51,.T.);
#39=FACE_OUTER_BOUND('',#52,.T.);
#40=FACE_OUTER_BOUND('',#53,.T.);
#41=FACE_OUTER_BOUND('',#54,.T.);
#42=FACE_OUTER_BOUND('',#55,.T.);
#43=FACE_OUTER_BOUND('',#56,.T.);
#44=FACE_OUTER_BOUND('',#57,.T.);
#45=FACE_OUTER_BOUND('',#58,.T.);
#46=FACE_OUTER_BOUND('',#59,.T.);
#47=FACE_OUTER_BOUND('',#60,.T.);
#48=FACE_OUTER_BOUND('',#62,.T.);
#49=FACE_OUTER_BOUND('',#63,.T.);
#50=FACE_OUTER_BOUND('',#64,.T.);
#51=EDGE_LOOP('',(#184,#185,#186,#187,#188,#189,#190,#191));
#52=EDGE_LOOP('',(#192,#193,#194,#195,#196,#197,#198));
#53=EDGE_LOOP('',(#199,#200,#201,#202,#203,#204));
#54=EDGE_LOOP('',(#205,#206,#207,#208,#209,#210));
#55=EDGE_LOOP('',(#211,#212,#213,#214,#215,#216,#217,#218));
#56=EDGE_LOOP('',(#219,#220,#221,#222,#223,#224,#225));
#57=EDGE_LOOP('',(#226,#227,#228,#229,#230,#231,#232,#233));
#58=EDGE_LOOP('',(#234,#235,#236,#237,#238,#239,#240,#241));
#59=EDGE_LOOP('',(#242,#243,#244,#245,#246,#247,#248));
#60=EDGE_LOOP('',(#249,#250));
#61=EDGE_LOOP('',(#251,#252));
#62=EDGE_LOOP('',(#253,#254,#255,#256,#257,#258,#259));
#63=EDGE_LOOP('',(#260,#261,#262,#263,#264,#265,#266,#267));
#64=EDGE_LOOP('',(#268,#269,#270,#271,#272,#273,#274,#275));
#65=CIRCLE('',#315,15.7);
#66=CIRCLE('',#316,15.7);
#67=CIRCLE('',#317,3.75507601117588);
#68=CIRCLE('',#318,15.15);
#69=CIRCLE('',#319,15.15);
#70=CIRCLE('',#320,15.15);
#71=CIRCLE('',#321,15.7);
#72=CIRCLE('',#323,14.4);
#73=CIRCLE('',#324,14.4);
#74=CIRCLE('',#325,14.4);
#75=CIRCLE('',#326,14.4);
#76=CIRCLE('',#327,14.4);
#77=CIRCLE('',#329,3.);
#78=CIRCLE('',#330,14.4);
#79=CIRCLE('',#331,14.4);
#80=CIRCLE('',#333,14.4);
#81=CIRCLE('',#334,14.4);
#82=CIRCLE('',#337,14.2);
#83=CIRCLE('',#338,14.2);
#84=CIRCLE('',#339,14.2);
#85=CIRCLE('',#340,2.);
#86=CIRCLE('',#342,14.2);
#87=CIRCLE('',#343,14.2);
#88=CIRCLE('',#344,14.2);
#89=CIRCLE('',#346,2.);
#90=CIRCLE('',#347,13.5);
#91=CIRCLE('',#348,13.5);
#92=CIRCLE('',#349,13.5);
#93=CIRCLE('',#351,13.5);
#94=CIRCLE('',#352,13.5);
#95=CIRCLE('',#354,15.);
#96=CIRCLE('',#355,15.);
#97=CIRCLE('',#357,15.);
#98=CIRCLE('',#358,15.);
#99=CIRCLE('',#359,15.);
#100=CIRCLE('',#361,15.7);
#101=CIRCLE('',#362,15.7);
#102=CIRCLE('',#363,15.7);
#103=CIRCLE('',#364,3.5);
#104=VERTEX_POINT('',#481);
#105=VERTEX_POINT('',#482);
#106=VERTEX_POINT('',#484);
#107=VERTEX_POINT('',#486);
#108=VERTEX_POINT('',#488);
#109=VERTEX_POINT('',#490);
#110=VERTEX_POINT('',#495);
#111=VERTEX_POINT('',#496);
#112=VERTEX_POINT('',#498);
#113=VERTEX_POINT('',#500);
#114=VERTEX_POINT('',#502);
#115=VERTEX_POINT('',#507);
#116=VERTEX_POINT('',#509);
#117=VERTEX_POINT('',#513);
#118=VERTEX_POINT('',#514);
#119=VERTEX_POINT('',#521);
#120=VERTEX_POINT('',#522);
#121=VERTEX_POINT('',#524);
#122=VERTEX_POINT('',#529);
#123=VERTEX_POINT('',#531);
#124=VERTEX_POINT('',#533);
#125=VERTEX_POINT('',#537);
#126=VERTEX_POINT('',#539);
#127=VERTEX_POINT('',#541);
#128=VERTEX_POINT('',#545);
#129=VERTEX_POINT('',#547);
#130=VERTEX_POINT('',#551);
#131=VERTEX_POINT('',#552);
#132=VERTEX_POINT('',#556);
#133=VERTEX_POINT('',#557);
#134=VERTEX_POINT('',#559);
#135=VERTEX_POINT('',#564);
#136=VERTEX_POINT('',#565);
#137=VERTEX_POINT('',#567);
#138=EDGE_CURVE('',#104,#105,#65,.T.);
#139=EDGE_CURVE('',#105,#106,#66,.T.);
#140=EDGE_CURVE('',#106,#107,#67,.T.);
#141=EDGE_CURVE('',#108,#107,#68,.T.);
#142=EDGE_CURVE('',#109,#108,#69,.T.);
#143=EDGE_CURVE('',#107,#109,#70,.T.);
#144=EDGE_CURVE('',#106,#104,#71,.T.);
#145=EDGE_CURVE('',#110,#111,#72,.T.);
#146=EDGE_CURVE('',#111,#112,#18,.T.);
#147=EDGE_CURVE('',#112,#113,#73,.T.);
#148=EDGE_CURVE('',#113,#114,#74,.T.);
#149=EDGE_CURVE('',#114,#112,#75,.T.);
#150=EDGE_CURVE('',#111,#110,#76,.T.);
#151=EDGE_CURVE('',#111,#115,#77,.T.);
#152=EDGE_CURVE('',#115,#116,#78,.T.);
#153=EDGE_CURVE('',#116,#115,#79,.T.);
#154=EDGE_CURVE('',#117,#118,#80,.T.);
#155=EDGE_CURVE('',#118,#117,#81,.T.);
#156=EDGE_CURVE('',#118,#115,#19,.T.);
#157=EDGE_CURVE('',#108,#114,#20,.T.);
#158=EDGE_CURVE('',#119,#120,#82,.T.);
#159=EDGE_CURVE('',#121,#119,#83,.T.);
#160=EDGE_CURVE('',#120,#121,#84,.T.);
#161=EDGE_CURVE('',#120,#117,#85,.T.);
#162=EDGE_CURVE('',#121,#122,#21,.T.);
#163=EDGE_CURVE('',#123,#122,#86,.T.);
#164=EDGE_CURVE('',#124,#123,#87,.T.);
#165=EDGE_CURVE('',#122,#124,#88,.T.);
#166=EDGE_CURVE('',#123,#125,#89,.T.);
#167=EDGE_CURVE('',#126,#125,#90,.T.);
#168=EDGE_CURVE('',#127,#126,#91,.T.);
#169=EDGE_CURVE('',#125,#127,#92,.T.);
#170=EDGE_CURVE('',#127,#128,#22,.T.);
#171=EDGE_CURVE('',#129,#128,#93,.T.);
#172=EDGE_CURVE('',#128,#129,#94,.T.);
#173=EDGE_CURVE('',#130,#131,#95,.T.);
#174=EDGE_CURVE('',#131,#130,#96,.T.);
#175=EDGE_CURVE('',#132,#133,#97,.T.);
#176=EDGE_CURVE('',#134,#132,#98,.T.);
#177=EDGE_CURVE('',#134,#131,#23,.T.);
#178=EDGE_CURVE('',#133,#134,#99,.T.);
#179=EDGE_CURVE('',#135,#136,#100,.T.);
#180=EDGE_CURVE('',#137,#135,#101,.T.);
#181=EDGE_CURVE('',#136,#137,#102,.T.);
#182=EDGE_CURVE('',#136,#133,#103,.T.);
#183=EDGE_CURVE('',#105,#137,#24,.T.);
#184=ORIENTED_EDGE('',*,*,#138,.T.);
#185=ORIENTED_EDGE('',*,*,#139,.T.);
#186=ORIENTED_EDGE('',*,*,#140,.T.);
#187=ORIENTED_EDGE('',*,*,#141,.F.);
#188=ORIENTED_EDGE('',*,*,#142,.F.);
#189=ORIENTED_EDGE('',*,*,#143,.F.);
#190=ORIENTED_EDGE('',*,*,#140,.F.);
#191=ORIENTED_EDGE('',*,*,#144,.T.);
#192=ORIENTED_EDGE('',*,*,#145,.T.);
#193=ORIENTED_EDGE('',*,*,#146,.T.);
#194=ORIENTED_EDGE('',*,*,#147,.T.);
#195=ORIENTED_EDGE('',*,*,#148,.T.);
#196=ORIENTED_EDGE('',*,*,#149,.T.);
#197=ORIENTED_EDGE('',*,*,#146,.F.);
#198=ORIENTED_EDGE('',*,*,#150,.T.);
#199=ORIENTED_EDGE('',*,*,#145,.F.);
#200=ORIENTED_EDGE('',*,*,#150,.F.);
#201=ORIENTED_EDGE('',*,*,#151,.T.);
#202=ORIENTED_EDGE('',*,*,#152,.T.);
#203=ORIENTED_EDGE('',*,*,#153,.T.);
#204=ORIENTED_EDGE('',*,*,#151,.F.);
#205=ORIENTED_EDGE('',*,*,#154,.F.);
#206=ORIENTED_EDGE('',*,*,#155,.F.);
#207=ORIENTED_EDGE('',*,*,#156,.T.);
#208=ORIENTED_EDGE('',*,*,#153,.F.);
#209=ORIENTED_EDGE('',*,*,#152,.F.);
#210=ORIENTED_EDGE('',*,*,#156,.F.);
#211=ORIENTED_EDGE('',*,*,#142,.T.);
#212=ORIENTED_EDGE('',*,*,#157,.T.);
#213=ORIENTED_EDGE('',*,*,#148,.F.);
#214=ORIENTED_EDGE('',*,*,#147,.F.);
#215=ORIENTED_EDGE('',*,*,#149,.F.);
#216=ORIENTED_EDGE('',*,*,#157,.F.);
#217=ORIENTED_EDGE('',*,*,#141,.T.);
#218=ORIENTED_EDGE('',*,*,#143,.T.);
#219=ORIENTED_EDGE('',*,*,#158,.F.);
#220=ORIENTED_EDGE('',*,*,#159,.F.);
#221=ORIENTED_EDGE('',*,*,#160,.F.);
#222=ORIENTED_EDGE('',*,*,#161,.T.);
#223=ORIENTED_EDGE('',*,*,#154,.T.);
#224=ORIENTED_EDGE('',*,*,#155,.T.);
#225=ORIENTED_EDGE('',*,*,#161,.F.);
#226=ORIENTED_EDGE('',*,*,#158,.T.);
#227=ORIENTED_EDGE('',*,*,#160,.T.);
#228=ORIENTED_EDGE('',*,*,#162,.T.);
#229=ORIENTED_EDGE('',*,*,#163,.F.);
#230=ORIENTED_EDGE('',*,*,#164,.F.);
#231=ORIENTED_EDGE('',*,*,#165,.F.);
#232=ORIENTED_EDGE('',*,*,#162,.F.);
#233=ORIENTED_EDGE('',*,*,#159,.T.);
#234=ORIENTED_EDGE('',*,*,#164,.T.);
#235=ORIENTED_EDGE('',*,*,#166,.T.);
#236=ORIENTED_EDGE('',*,*,#167,.F.);
#237=ORIENTED_EDGE('',*,*,#168,.F.);
#238=ORIENTED_EDGE('',*,*,#169,.F.);
#239=ORIENTED_EDGE('',*,*,#166,.F.);
#240=ORIENTED_EDGE('',*,*,#163,.T.);
#241=ORIENTED_EDGE('',*,*,#165,.T.);
#242=ORIENTED_EDGE('',*,*,#167,.T.);
#243=ORIENTED_EDGE('',*,*,#169,.T.);
#244=ORIENTED_EDGE('',*,*,#170,.T.);
#245=ORIENTED_EDGE('',*,*,#171,.F.);
#246=ORIENTED_EDGE('',*,*,#172,.F.);
#247=ORIENTED_EDGE('',*,*,#170,.F.);
#248=ORIENTED_EDGE('',*,*,#168,.T.);
#249=ORIENTED_EDGE('',*,*,#173,.F.);
#250=ORIENTED_EDGE('',*,*,#174,.F.);
#251=ORIENTED_EDGE('',*,*,#171,.T.);
#252=ORIENTED_EDGE('',*,*,#172,.T.);
#253=ORIENTED_EDGE('',*,*,#175,.F.);
#254=ORIENTED_EDGE('',*,*,#176,.F.);
#255=ORIENTED_EDGE('',*,*,#177,.T.);
#256=ORIENTED_EDGE('',*,*,#174,.T.);
#257=ORIENTED_EDGE('',*,*,#173,.T.);
#258=ORIENTED_EDGE('',*,*,#177,.F.);
#259=ORIENTED_EDGE('',*,*,#178,.F.);
#260=ORIENTED_EDGE('',*,*,#179,.F.);
#261=ORIENTED_EDGE('',*,*,#180,.F.);
#262=ORIENTED_EDGE('',*,*,#181,.F.);
#263=ORIENTED_EDGE('',*,*,#182,.T.);
#264=ORIENTED_EDGE('',*,*,#178,.T.);
#265=ORIENTED_EDGE('',*,*,#176,.T.);
#266=ORIENTED_EDGE('',*,*,#175,.T.);
#267=ORIENTED_EDGE('',*,*,#182,.F.);
#268=ORIENTED_EDGE('',*,*,#138,.F.);
#269=ORIENTED_EDGE('',*,*,#144,.F.);
#270=ORIENTED_EDGE('',*,*,#139,.F.);
#271=ORIENTED_EDGE('',*,*,#183,.T.);
#272=ORIENTED_EDGE('',*,*,#180,.T.);
#273=ORIENTED_EDGE('',*,*,#179,.T.);
#274=ORIENTED_EDGE('',*,*,#181,.T.);
#275=ORIENTED_EDGE('',*,*,#183,.F.);
#276=TOROIDAL_SURFACE('',#314,14.5968255750602,3.75507601117588);
#277=TOROIDAL_SURFACE('',#328,17.,3.);
#278=TOROIDAL_SURFACE('',#336,16.2,2.);
#279=TOROIDAL_SURFACE('',#345,12.2,2.);
#280=TOROIDAL_SURFACE('',#360,12.2,3.5);
#281=ADVANCED_FACE('',(#38),#276,.T.);
#282=ADVANCED_FACE('',(#39),#32,.F.);
#283=ADVANCED_FACE('',(#40),#277,.T.);
#284=ADVANCED_FACE('',(#41),#33,.F.);
#285=ADVANCED_FACE('',(#42),#17,.F.);
#286=ADVANCED_FACE('',(#43),#278,.T.);
#287=ADVANCED_FACE('',(#44),#34,.F.);
#288=ADVANCED_FACE('',(#45),#279,.F.);
#289=ADVANCED_FACE('',(#46),#35,.F.);
#290=ADVANCED_FACE('',(#47,#15),#16,.T.);
#291=ADVANCED_FACE('',(#48),#36,.T.);
#292=ADVANCED_FACE('',(#49),#280,.T.);
#293=ADVANCED_FACE('',(#50),#37,.T.);
#294=CLOSED_SHELL('',(#281,#282,#283,#284,#285,#286,#287,#288,#289,#290,
#291,#292,#293));
#295=DERIVED_UNIT_ELEMENT(#297,1.);
#296=DERIVED_UNIT_ELEMENT(#578,3.);
#297=(
MASS_UNIT()
NAMED_UNIT(*)
SI_UNIT($,.GRAM.)
);
#298=DERIVED_UNIT((#295,#296));
#299=MEASURE_REPRESENTATION_ITEM('density measure',
POSITIVE_RATIO_MEASURE(1.),#298);
#300=PROPERTY_DEFINITION_REPRESENTATION(#305,#302);
#301=PROPERTY_DEFINITION_REPRESENTATION(#306,#303);
#302=REPRESENTATION('material name',(#304),#575);
#303=REPRESENTATION('density',(#299),#575);
#304=DESCRIPTIVE_REPRESENTATION_ITEM('Generico','Generico');
#305=PROPERTY_DEFINITION('material property','material name',#585);
#306=PROPERTY_DEFINITION('material property','density of part',#585);
#307=DATE_TIME_ROLE('creation_date');
#308=APPLIED_DATE_AND_TIME_ASSIGNMENT(#309,#307,(#585));
#309=DATE_AND_TIME(#310,#311);
#310=CALENDAR_DATE(2016,7,3);
#311=LOCAL_TIME(16,7,12.,#312);
#312=COORDINATED_UNIVERSAL_TIME_OFFSET(0,0,.BEHIND.);
#313=AXIS2_PLACEMENT_3D('placement',#479,#366,#367);
#314=AXIS2_PLACEMENT_3D('',#480,#368,#369);
#315=AXIS2_PLACEMENT_3D('',#483,#370,#371);
#316=AXIS2_PLACEMENT_3D('',#485,#372,#373);
#317=AXIS2_PLACEMENT_3D('',#487,#374,#375);
#318=AXIS2_PLACEMENT_3D('',#489,#376,#377);
#319=AXIS2_PLACEMENT_3D('',#491,#378,#379);
#320=AXIS2_PLACEMENT_3D('',#492,#380,#381);
#321=AXIS2_PLACEMENT_3D('',#493,#382,#383);
#322=AXIS2_PLACEMENT_3D('',#494,#384,#385);
#323=AXIS2_PLACEMENT_3D('',#497,#386,#387);
#324=AXIS2_PLACEMENT_3D('',#501,#389,#390);
#325=AXIS2_PLACEMENT_3D('',#503,#391,#392);
#326=AXIS2_PLACEMENT_3D('',#504,#393,#394);
#327=AXIS2_PLACEMENT_3D('',#505,#395,#396);
#328=AXIS2_PLACEMENT_3D('',#506,#397,#398);
#329=AXIS2_PLACEMENT_3D('',#508,#399,#400);
#330=AXIS2_PLACEMENT_3D('',#510,#401,#402);
#331=AXIS2_PLACEMENT_3D('',#511,#403,#404);
#332=AXIS2_PLACEMENT_3D('',#512,#405,#406);
#333=AXIS2_PLACEMENT_3D('',#515,#407,#408);
#334=AXIS2_PLACEMENT_3D('',#516,#409,#410);
#335=AXIS2_PLACEMENT_3D('',#518,#412,#413);
#336=AXIS2_PLACEMENT_3D('',#520,#415,#416);
#337=AXIS2_PLACEMENT_3D('',#523,#417,#418);
#338=AXIS2_PLACEMENT_3D('',#525,#419,#420);
#339=AXIS2_PLACEMENT_3D('',#526,#421,#422);
#340=AXIS2_PLACEMENT_3D('',#527,#423,#424);
#341=AXIS2_PLACEMENT_3D('',#528,#425,#426);
#342=AXIS2_PLACEMENT_3D('',#532,#428,#429);
#343=AXIS2_PLACEMENT_3D('',#534,#430,#431);
#344=AXIS2_PLACEMENT_3D('',#535,#432,#433);
#345=AXIS2_PLACEMENT_3D('',#536,#434,#435);
#346=AXIS2_PLACEMENT_3D('',#538,#436,#437);
#347=AXIS2_PLACEMENT_3D('',#540,#438,#439);
#348=AXIS2_PLACEMENT_3D('',#542,#440,#441);
#349=AXIS2_PLACEMENT_3D('',#543,#442,#443);
#350=AXIS2_PLACEMENT_3D('',#544,#444,#445);
#351=AXIS2_PLACEMENT_3D('',#548,#447,#448);
#352=AXIS2_PLACEMENT_3D('',#549,#449,#450);
#353=AXIS2_PLACEMENT_3D('',#550,#451,#452);
#354=AXIS2_PLACEMENT_3D('',#553,#453,#454);
#355=AXIS2_PLACEMENT_3D('',#554,#455,#456);
#356=AXIS2_PLACEMENT_3D('',#555,#457,#458);
#357=AXIS2_PLACEMENT_3D('',#558,#459,#460);
#358=AXIS2_PLACEMENT_3D('',#560,#461,#462);
#359=AXIS2_PLACEMENT_3D('',#562,#464,#465);
#360=AXIS2_PLACEMENT_3D('',#563,#466,#467);
#361=AXIS2_PLACEMENT_3D('',#566,#468,#469);
#362=AXIS2_PLACEMENT_3D('',#568,#470,#471);
#363=AXIS2_PLACEMENT_3D('',#569,#472,#473);
#364=AXIS2_PLACEMENT_3D('',#570,#474,#475);
#365=AXIS2_PLACEMENT_3D('',#571,#476,#477);
#366=DIRECTION('axis',(0.,0.,1.));
#367=DIRECTION('refdir',(1.,0.,0.));
#368=DIRECTION('center_axis',(-1.,0.,0.));
#369=DIRECTION('ref_axis',(0.,0.,1.));
#370=DIRECTION('center_axis',(1.,0.,0.));
#371=DIRECTION('ref_axis',(3.24323307299015E-17,1.,0.));
#372=DIRECTION('center_axis',(1.,0.,0.));
#373=DIRECTION('ref_axis',(3.24323307299015E-17,1.,0.));
#374=DIRECTION('center_axis',(0.,-1.,1.22464679914735E-16));
#375=DIRECTION('ref_axis',(0.,-1.22464679914735E-16,-1.));
#376=DIRECTION('center_axis',(1.,0.,0.));
#377=DIRECTION('ref_axis',(3.24323307299015E-17,1.,0.));
#378=DIRECTION('center_axis',(1.,0.,0.));
#379=DIRECTION('ref_axis',(3.24323307299015E-17,1.,0.));
#380=DIRECTION('center_axis',(1.,0.,0.));
#381=DIRECTION('ref_axis',(3.24323307299015E-17,1.,0.));
#382=DIRECTION('center_axis',(1.,0.,0.));
#383=DIRECTION('ref_axis',(3.24323307299015E-17,1.,0.));
#384=DIRECTION('center_axis',(-1.,0.,0.));
#385=DIRECTION('ref_axis',(0.,0.,1.));
#386=DIRECTION('center_axis',(-1.,0.,0.));
#387=DIRECTION('ref_axis',(0.,0.,1.));
#388=DIRECTION('',(1.,0.,0.));
#389=DIRECTION('center_axis',(1.,0.,0.));
#390=DIRECTION('ref_axis',(3.24323307299015E-17,1.,0.));
#391=DIRECTION('center_axis',(1.,0.,0.));
#392=DIRECTION('ref_axis',(3.24323307299015E-17,1.,0.));
#393=DIRECTION('center_axis',(1.,0.,0.));
#394=DIRECTION('ref_axis',(3.24323307299015E-17,1.,0.));
#395=DIRECTION('center_axis',(-1.,0.,0.));
#396=DIRECTION('ref_axis',(0.,0.,1.));
#397=DIRECTION('center_axis',(-1.,0.,0.));
#398=DIRECTION('ref_axis',(0.,0.,1.));
#399=DIRECTION('center_axis',(0.,-1.,1.22464679914735E-16));
#400=DIRECTION('ref_axis',(0.,-1.22464679914735E-16,-1.));
#401=DIRECTION('center_axis',(-1.,0.,0.));
#402=DIRECTION('ref_axis',(0.,0.,1.));
#403=DIRECTION('center_axis',(-1.,0.,0.));
#404=DIRECTION('ref_axis',(0.,0.,1.));
#405=DIRECTION('center_axis',(-1.,0.,0.));
#406=DIRECTION('ref_axis',(0.,0.,1.));
#407=DIRECTION('center_axis',(1.,0.,0.));
#408=DIRECTION('ref_axis',(0.,0.,1.));
#409=DIRECTION('center_axis',(1.,0.,0.));
#410=DIRECTION('ref_axis',(0.,0.,1.));
#411=DIRECTION('',(1.,0.,0.));
#412=DIRECTION('center_axis',(1.,0.,0.));
#413=DIRECTION('ref_axis',(3.24323307299015E-17,1.,0.));
#414=DIRECTION('',(-0.86602540378444,0.499999999999998,6.12323399573675E-17));
#415=DIRECTION('center_axis',(1.,0.,0.));
#416=DIRECTION('ref_axis',(0.,0.,-1.));
#417=DIRECTION('center_axis',(1.,0.,0.));
#418=DIRECTION('ref_axis',(3.24323307299015E-17,1.,0.));
#419=DIRECTION('center_axis',(1.,0.,0.));
#420=DIRECTION('ref_axis',(3.24323307299015E-17,1.,0.));
#421=DIRECTION('center_axis',(1.,0.,0.));
#422=DIRECTION('ref_axis',(3.24323307299015E-17,1.,0.));
#423=DIRECTION('center_axis',(0.,-1.,-1.22464679914735E-16));
#424=DIRECTION('ref_axis',(0.,-1.22464679914735E-16,1.));
#425=DIRECTION('center_axis',(1.,0.,0.));
#426=DIRECTION('ref_axis',(3.24323307299015E-17,1.,0.));
#427=DIRECTION('',(-1.,0.,0.));
#428=DIRECTION('center_axis',(1.,0.,0.));
#429=DIRECTION('ref_axis',(3.24323307299015E-17,1.,0.));
#430=DIRECTION('center_axis',(1.,0.,0.));
#431=DIRECTION('ref_axis',(3.24323307299015E-17,1.,0.));
#432=DIRECTION('center_axis',(1.,0.,0.));
#433=DIRECTION('ref_axis',(3.24323307299015E-17,1.,0.));
#434=DIRECTION('center_axis',(1.,0.,0.));
#435=DIRECTION('ref_axis',(0.,0.,-1.));
#436=DIRECTION('center_axis',(0.,-1.,-1.22464679914735E-16));
#437=DIRECTION('ref_axis',(0.,-1.22464679914735E-16,1.));
#438=DIRECTION('center_axis',(1.,0.,0.));
#439=DIRECTION('ref_axis',(3.24323307299015E-17,1.,0.));
#440=DIRECTION('center_axis',(1.,0.,0.));
#441=DIRECTION('ref_axis',(3.24323307299015E-17,1.,0.));
#442=DIRECTION('center_axis',(1.,0.,0.));
#443=DIRECTION('ref_axis',(3.24323307299015E-17,1.,0.));
#444=DIRECTION('center_axis',(1.,0.,0.));
#445=DIRECTION('ref_axis',(3.24323307299015E-17,1.,0.));
#446=DIRECTION('',(-1.,0.,0.));
#447=DIRECTION('center_axis',(1.,0.,0.));
#448=DIRECTION('ref_axis',(3.24323307299015E-17,1.,0.));
#449=DIRECTION('center_axis',(1.,0.,0.));
#450=DIRECTION('ref_axis',(3.24323307299015E-17,1.,0.));
#451=DIRECTION('center_axis',(-1.,0.,0.));
#452=DIRECTION('ref_axis',(0.,0.,1.));
#453=DIRECTION('center_axis',(1.,0.,0.));
#454=DIRECTION('ref_axis',(3.24323307299015E-17,1.,0.));
#455=DIRECTION('center_axis',(1.,0.,0.));
#456=DIRECTION('ref_axis',(3.24323307299015E-17,1.,0.));
#457=DIRECTION('center_axis',(1.,0.,0.));
#458=DIRECTION('ref_axis',(3.24323307299015E-17,1.,0.));
#459=DIRECTION('center_axis',(1.,0.,0.));
#460=DIRECTION('ref_axis',(3.24323307299015E-17,1.,0.));
#461=DIRECTION('center_axis',(1.,0.,0.));
#462=DIRECTION('ref_axis',(3.24323307299015E-17,1.,0.));
#463=DIRECTION('',(-1.,0.,0.));
#464=DIRECTION('center_axis',(1.,0.,0.));
#465=DIRECTION('ref_axis',(3.24323307299015E-17,1.,0.));
#466=DIRECTION('center_axis',(1.,0.,0.));
#467=DIRECTION('ref_axis',(0.,0.,-1.));
#468=DIRECTION('center_axis',(1.,0.,0.));
#469=DIRECTION('ref_axis',(3.24323307299015E-17,1.,0.));
#470=DIRECTION('center_axis',(1.,0.,0.));
#471=DIRECTION('ref_axis',(3.24323307299015E-17,1.,0.));
#472=DIRECTION('center_axis',(1.,0.,0.));
#473=DIRECTION('ref_axis',(3.24323307299015E-17,1.,0.));
#474=DIRECTION('center_axis',(0.,-1.,-1.22464679914735E-16));
#475=DIRECTION('ref_axis',(0.,-1.22464679914735E-16,1.));
#476=DIRECTION('center_axis',(1.,0.,0.));
#477=DIRECTION('ref_axis',(3.24323307299015E-17,1.,0.));
#478=DIRECTION('',(-1.,0.,0.));
#479=CARTESIAN_POINT('',(0.,0.,0.));
#480=CARTESIAN_POINT('Origin',(-3.71410741703851,0.,0.));
#481=CARTESIAN_POINT('',(-7.30348090524877,15.7,0.));
#482=CARTESIAN_POINT('',(-7.30348090524877,-15.7,-1.92269547466134E-15));
#483=CARTESIAN_POINT('Origin',(-7.30348090524877,0.,0.));
#484=CARTESIAN_POINT('',(-7.30348090524877,-1.92269547466134E-15,-15.7));
#485=CARTESIAN_POINT('Origin',(-7.30348090524877,0.,0.));
#486=CARTESIAN_POINT('',(-2.22044604925031E-15,-1.85533990070824E-15,-15.15));
#487=CARTESIAN_POINT('Origin',(-3.71410741703851,-1.78759557182097E-15,
-14.5968255750602));
#488=CARTESIAN_POINT('',(1.94289029309402E-15,-15.15,-1.85533990070824E-15));
#489=CARTESIAN_POINT('Origin',(-2.22044604925031E-15,0.,0.));
#490=CARTESIAN_POINT('',(-2.22044604925031E-15,15.15,0.));
#491=CARTESIAN_POINT('Origin',(-2.22044604925031E-15,0.,0.));
#492=CARTESIAN_POINT('Origin',(-2.22044604925031E-15,0.,0.));
#493=CARTESIAN_POINT('Origin',(-7.30348090524877,0.,0.));
#494=CARTESIAN_POINT('Origin',(-1.75824128400284,0.,0.));
#495=CARTESIAN_POINT('',(-2.21744446232901,0.,14.4));
#496=CARTESIAN_POINT('',(-2.21744446232901,-1.76349139077219E-15,-14.4));
#497=CARTESIAN_POINT('Origin',(-2.21744446232901,0.,0.));
#498=CARTESIAN_POINT('',(-1.29903810567666,-1.76349139077219E-15,-14.4));
#499=CARTESIAN_POINT('',(-1.75824128400284,-1.76349139077219E-15,-14.4));
#500=CARTESIAN_POINT('',(-1.29903810567666,0.,14.4));
#501=CARTESIAN_POINT('Origin',(-1.29903810567666,0.,0.));
#502=CARTESIAN_POINT('',(-1.29903810567666,-14.4,-1.76349139077219E-15));
#503=CARTESIAN_POINT('Origin',(-1.29903810567666,0.,0.));
#504=CARTESIAN_POINT('Origin',(-1.29903810567666,0.,0.));
#505=CARTESIAN_POINT('Origin',(-2.21744446232901,0.,0.));
#506=CARTESIAN_POINT('Origin',(-3.71410741703859,0.,0.));
#507=CARTESIAN_POINT('',(-5.21077037174816,-1.76349139077219E-15,-14.4));
#508=CARTESIAN_POINT('Origin',(-3.71410741703859,-2.0818995585505E-15,-17.));
#509=CARTESIAN_POINT('',(-5.21077037174816,0.,14.4));
#510=CARTESIAN_POINT('Origin',(-5.21077037174816,0.,0.));
#511=CARTESIAN_POINT('Origin',(-5.21077037174816,0.,0.));
#512=CARTESIAN_POINT('Origin',(-5.82123574414439,0.,0.));
#513=CARTESIAN_POINT('',(-6.43170111654062,0.,14.4));
#514=CARTESIAN_POINT('',(-6.43170111654062,-1.76349139077219E-15,-14.4));
#515=CARTESIAN_POINT('Origin',(-6.43170111654062,0.,0.));
#516=CARTESIAN_POINT('Origin',(-6.43170111654062,0.,0.));
#517=CARTESIAN_POINT('',(-5.82123574414439,-1.76349139077219E-15,-14.4));
#518=CARTESIAN_POINT('Origin',(-0.649519052838332,0.,0.));
#519=CARTESIAN_POINT('',(-0.649519052838332,-14.775,-1.80941564574021E-15));
#520=CARTESIAN_POINT('Origin',(-7.30348090524877,0.,0.));
#521=CARTESIAN_POINT('',(-7.30348090524877,14.2,0.));
#522=CARTESIAN_POINT('',(-7.30348090524877,-1.73899845478924E-15,14.2));
#523=CARTESIAN_POINT('Origin',(-7.30348090524877,0.,0.));
#524=CARTESIAN_POINT('',(-7.30348090524877,-14.2,-1.73899845478924E-15));
#525=CARTESIAN_POINT('Origin',(-7.30348090524877,0.,0.));
#526=CARTESIAN_POINT('Origin',(-7.30348090524877,0.,0.));
#527=CARTESIAN_POINT('Origin',(-7.30348090524877,-1.98392781461871E-15,
16.2));
#528=CARTESIAN_POINT('Origin',(-15.1517404526244,0.,0.));
#529=CARTESIAN_POINT('',(-23.,-14.2,-1.73899845478924E-15));
#530=CARTESIAN_POINT('',(-15.1517404526244,-14.2,-1.73899845478924E-15));
#531=CARTESIAN_POINT('',(-23.,-1.73899845478924E-15,14.2));
#532=CARTESIAN_POINT('Origin',(-23.,0.,0.));
#533=CARTESIAN_POINT('',(-23.,14.2,0.));
#534=CARTESIAN_POINT('Origin',(-23.,0.,0.));
#535=CARTESIAN_POINT('Origin',(-23.,0.,0.));
#536=CARTESIAN_POINT('Origin',(-23.,0.,0.));
#537=CARTESIAN_POINT('',(-24.5198684153571,-1.65327317884893E-15,13.5));
#538=CARTESIAN_POINT('Origin',(-23.,-1.49406909495977E-15,12.2));
#539=CARTESIAN_POINT('',(-24.5198684153571,13.5,0.));
#540=CARTESIAN_POINT('Origin',(-24.5198684153571,0.,0.));
#541=CARTESIAN_POINT('',(-24.5198684153571,-13.5,-1.65327317884893E-15));
#542=CARTESIAN_POINT('Origin',(-24.5198684153571,0.,0.));
#543=CARTESIAN_POINT('Origin',(-24.5198684153571,0.,0.));
#544=CARTESIAN_POINT('Origin',(-29.0099342076785,0.,0.));
#545=CARTESIAN_POINT('',(-33.5,-13.5,-1.65327317884893E-15));
#546=CARTESIAN_POINT('',(-29.0099342076785,-13.5,-1.65327317884893E-15));
#547=CARTESIAN_POINT('',(-33.5,13.5,0.));
#548=CARTESIAN_POINT('Origin',(-33.5,0.,0.));
#549=CARTESIAN_POINT('Origin',(-33.5,0.,0.));
#550=CARTESIAN_POINT('Origin',(-33.5,14.25,0.));
#551=CARTESIAN_POINT('',(-33.5,15.,0.));
#552=CARTESIAN_POINT('',(-33.5,-15.,-1.83697019872103E-15));
#553=CARTESIAN_POINT('Origin',(-33.5,0.,0.));
#554=CARTESIAN_POINT('Origin',(-33.5,0.,0.));
#555=CARTESIAN_POINT('Origin',(-29.3,0.,0.));
#556=CARTESIAN_POINT('',(-25.1,15.,0.));
#557=CARTESIAN_POINT('',(-25.1,-1.83697019872103E-15,15.));
#558=CARTESIAN_POINT('Origin',(-25.1,0.,0.));
#559=CARTESIAN_POINT('',(-25.1,-15.,-1.83697019872103E-15));
#560=CARTESIAN_POINT('Origin',(-25.1,0.,0.));
#561=CARTESIAN_POINT('',(-29.3,-15.,-1.83697019872103E-15));
#562=CARTESIAN_POINT('Origin',(-25.1,0.,0.));
#563=CARTESIAN_POINT('Origin',(-23.,0.,0.));
#564=CARTESIAN_POINT('',(-23.,15.7,0.));
#565=CARTESIAN_POINT('',(-23.,-1.92269547466134E-15,15.7));
#566=CARTESIAN_POINT('Origin',(-23.,0.,0.));
#567=CARTESIAN_POINT('',(-23.,-15.7,-1.92269547466134E-15));
#568=CARTESIAN_POINT('Origin',(-23.,0.,0.));
#569=CARTESIAN_POINT('Origin',(-23.,0.,0.));
#570=CARTESIAN_POINT('Origin',(-23.,-1.49406909495977E-15,12.2));
#571=CARTESIAN_POINT('Origin',(-15.1517404526244,0.,0.));
#572=CARTESIAN_POINT('',(-15.1517404526244,-15.7,-1.92269547466134E-15));
#573=UNCERTAINTY_MEASURE_WITH_UNIT(LENGTH_MEASURE(0.01),#577,
'DISTANCE_ACCURACY_VALUE',
'Maximum model space distance between geometric entities at asserted c
onnectivities');
#574=UNCERTAINTY_MEASURE_WITH_UNIT(LENGTH_MEASURE(0.01),#577,
'DISTANCE_ACCURACY_VALUE',
'Maximum model space distance between geometric entities at asserted c
onnectivities');
#575=(
GEOMETRIC_REPRESENTATION_CONTEXT(3)
GLOBAL_UNCERTAINTY_ASSIGNED_CONTEXT((#573))
GLOBAL_UNIT_ASSIGNED_CONTEXT((#577,#579,#580))
REPRESENTATION_CONTEXT('','3D')
);
#576=(
GEOMETRIC_REPRESENTATION_CONTEXT(3)
GLOBAL_UNCERTAINTY_ASSIGNED_CONTEXT((#574))
GLOBAL_UNIT_ASSIGNED_CONTEXT((#577,#579,#580))
REPRESENTATION_CONTEXT('','3D')
);
#577=(
LENGTH_UNIT()
NAMED_UNIT(*)
SI_UNIT(.MILLI.,.METRE.)
);
#578=(
LENGTH_UNIT()
NAMED_UNIT(*)
SI_UNIT(.CENTI.,.METRE.)
);
#579=(
NAMED_UNIT(*)
PLANE_ANGLE_UNIT()
SI_UNIT($,.RADIAN.)
);
#580=(
NAMED_UNIT(*)
SI_UNIT($,.STERADIAN.)
SOLID_ANGLE_UNIT()
);
#581=SHAPE_DEFINITION_REPRESENTATION(#582,#583);
#582=PRODUCT_DEFINITION_SHAPE('',$,#585);
#583=SHAPE_REPRESENTATION('',(#313),#575);
#584=PRODUCT_DEFINITION_CONTEXT('part definition',#589,'design');
#585=PRODUCT_DEFINITION('187028000R_Inoxpres','187028000R_Inoxpres',#586,
#584);
#586=PRODUCT_DEFINITION_FORMATION('0',$,#591);
#587=PRODUCT_RELATED_PRODUCT_CATEGORY('187028000R_Inoxpres',
'187028000R_Inoxpres',(#591));
#588=APPLICATION_PROTOCOL_DEFINITION('international standard',
'automotive_design',2009,#589);
#589=APPLICATION_CONTEXT(
'Core Data for Automotive Mechanical Design Process');
#590=PRODUCT_CONTEXT('part definition',#589,'mechanical');
#591=PRODUCT('187028000R_Inoxpres','187028000R_Inoxpres',
'MEZZOMANICOTTO A SALDARE DN28 (INOXPRES)',(#590));
#592=PRESENTATION_STYLE_ASSIGNMENT((#593));
#593=SURFACE_STYLE_USAGE(.BOTH.,#596);
#594=SURFACE_STYLE_RENDERING_WITH_PROPERTIES($,#600,(#595));
#595=SURFACE_STYLE_TRANSPARENT(0.);
#596=SURFACE_SIDE_STYLE('',(#597,#594));
#597=SURFACE_STYLE_FILL_AREA(#598);
#598=FILL_AREA_STYLE('',(#599));
#599=FILL_AREA_STYLE_COLOUR('',#600);
#600=COLOUR_RGB('',0.886274509803922,0.917647058823529,0.894117647058824);
ENDSEC;
END-ISO-10303-21;
