ISO-10303-21;
HEADER;
/* Generated by software containing ST-Developer
 * from STEP Tools, Inc. (www.steptools.com) 
 */

FILE_DESCRIPTION(
/* description */ ('TAPPO DI CHIUSURA DN15'),
/* implementation_level */ '2;1');

FILE_NAME(
/* name */ 
'R:\\Disegni3D_Area_Manager\\Steelpres.step\\383_003_STEELPRES\\383015
003_Steelpres.stp',
/* time_stamp */ '2022-10-21T16:17:04+02:00',
/* author */ ('Vault'),
/* organization */ ('Raccorderie metalliche s.p.a. '),
/* preprocessor_version */ 'ST-DEVELOPER v18.1',
/* originating_system */ 'Autodesk Inventor 2020',
/* authorisation */ 'Raccorderie metalliche s.p.a. ');

FILE_SCHEMA (('AUTOMOTIVE_DESIGN { 1 0 10303 214 3 1 1 }'));
ENDSEC;

DATA;
#10=MECHANICAL_DESIGN_GEOMETRIC_PRESENTATION_REPRESENTATION('',(#13),#442);
#11=SHAPE_REPRESENTATION_RELATIONSHIP('SRR','None',#449,#12);
#12=ADVANCED_BREP_SHAPE_REPRESENTATION('',(#14),#441);
#13=STYLED_ITEM('',(#458),#14);
#14=MANIFOLD_SOLID_BREP('Solido1',#223);
#15=CONICAL_SURFACE('',#269,8.65,0.785398163397448);
#16=PLANE('',#265);
#17=PLANE('',#274);
#18=LINE('',#396,#23);
#19=LINE('',#412,#24);
#20=LINE('',#422,#25);
#21=LINE('',#428,#26);
#22=LINE('',#433,#27);
#23=VECTOR('',#315,7.85);
#24=VECTOR('',#334,7.65);
#25=VECTOR('',#345,8.65);
#26=VECTOR('',#354,9.15);
#27=VECTOR('',#361,7.85);
#28=CYLINDRICAL_SURFACE('',#255,7.85);
#29=CYLINDRICAL_SURFACE('',#266,7.65);
#30=CYLINDRICAL_SURFACE('',#275,9.15);
#31=CYLINDRICAL_SURFACE('',#278,7.85);
#32=FACE_OUTER_BOUND('',#44,.T.);
#33=FACE_OUTER_BOUND('',#45,.T.);
#34=FACE_OUTER_BOUND('',#46,.T.);
#35=FACE_OUTER_BOUND('',#47,.T.);
#36=FACE_OUTER_BOUND('',#48,.T.);
#37=FACE_OUTER_BOUND('',#49,.T.);
#38=FACE_OUTER_BOUND('',#50,.T.);
#39=FACE_OUTER_BOUND('',#51,.T.);
#40=FACE_OUTER_BOUND('',#52,.T.);
#41=FACE_OUTER_BOUND('',#53,.T.);
#42=FACE_OUTER_BOUND('',#54,.T.);
#43=FACE_OUTER_BOUND('',#55,.T.);
#44=EDGE_LOOP('',(#140,#141,#142,#143,#144,#145));
#45=EDGE_LOOP('',(#146,#147,#148,#149,#150,#151));
#46=EDGE_LOOP('',(#152,#153,#154,#155,#156,#157));
#47=EDGE_LOOP('',(#158,#159,#160,#161,#162,#163,#164));
#48=EDGE_LOOP('',(#165,#166));
#49=EDGE_LOOP('',(#167,#168,#169,#170,#171,#172,#173));
#50=EDGE_LOOP('',(#174,#175,#176,#177,#178,#179));
#51=EDGE_LOOP('',(#180,#181));
#52=EDGE_LOOP('',(#182,#183,#184,#185,#186,#187));
#53=EDGE_LOOP('',(#188,#189,#190,#191,#192,#193));
#54=EDGE_LOOP('',(#194,#195,#196,#197,#198,#199));
#55=EDGE_LOOP('',(#200,#201,#202,#203,#204,#205));
#56=CIRCLE('',#244,9.15);
#57=CIRCLE('',#245,9.15);
#58=CIRCLE('',#246,3.33016050251765);
#59=CIRCLE('',#247,8.54341017096807);
#60=CIRCLE('',#248,8.54341017096807);
#61=CIRCLE('',#250,7.85);
#62=CIRCLE('',#251,7.85);
#63=CIRCLE('',#252,3.);
#64=CIRCLE('',#253,7.85);
#65=CIRCLE('',#254,7.85);
#66=CIRCLE('',#256,7.85);
#67=CIRCLE('',#257,7.85);
#68=CIRCLE('',#259,7.65);
#69=CIRCLE('',#260,7.65);
#70=CIRCLE('',#261,0.8);
#71=CIRCLE('',#262,6.85);
#72=CIRCLE('',#263,6.85);
#73=CIRCLE('',#264,7.65);
#74=CIRCLE('',#267,7.65);
#75=CIRCLE('',#268,7.65);
#76=CIRCLE('',#270,8.15);
#77=CIRCLE('',#271,8.15);
#78=CIRCLE('',#272,9.15);
#79=CIRCLE('',#273,9.15);
#80=CIRCLE('',#277,2.);
#81=CIRCLE('',#279,7.85);
#82=CIRCLE('',#280,7.85);
#83=CIRCLE('',#282,0.6);
#84=VERTEX_POINT('',#372);
#85=VERTEX_POINT('',#373);
#86=VERTEX_POINT('',#376);
#87=VERTEX_POINT('',#378);
#88=VERTEX_POINT('',#382);
#89=VERTEX_POINT('',#383);
#90=VERTEX_POINT('',#386);
#91=VERTEX_POINT('',#388);
#92=VERTEX_POINT('',#392);
#93=VERTEX_POINT('',#393);
#94=VERTEX_POINT('',#398);
#95=VERTEX_POINT('',#399);
#96=VERTEX_POINT('',#401);
#97=VERTEX_POINT('',#403);
#98=VERTEX_POINT('',#405);
#99=VERTEX_POINT('',#411);
#100=VERTEX_POINT('',#413);
#101=VERTEX_POINT('',#417);
#102=VERTEX_POINT('',#418);
#103=VERTEX_POINT('',#421);
#104=VERTEX_POINT('',#423);
#105=VERTEX_POINT('',#432);
#106=VERTEX_POINT('',#434);
#107=EDGE_CURVE('',#84,#85,#56,.T.);
#108=EDGE_CURVE('',#85,#84,#57,.T.);
#109=EDGE_CURVE('',#85,#86,#58,.T.);
#110=EDGE_CURVE('',#86,#87,#59,.T.);
#111=EDGE_CURVE('',#87,#86,#60,.T.);
#112=EDGE_CURVE('',#88,#89,#61,.T.);
#113=EDGE_CURVE('',#89,#88,#62,.T.);
#114=EDGE_CURVE('',#89,#90,#63,.T.);
#115=EDGE_CURVE('',#90,#91,#64,.T.);
#116=EDGE_CURVE('',#91,#90,#65,.T.);
#117=EDGE_CURVE('',#92,#93,#66,.T.);
#118=EDGE_CURVE('',#93,#92,#67,.T.);
#119=EDGE_CURVE('',#93,#90,#18,.T.);
#120=EDGE_CURVE('',#94,#95,#68,.T.);
#121=EDGE_CURVE('',#95,#96,#69,.T.);
#122=EDGE_CURVE('',#96,#97,#70,.T.);
#123=EDGE_CURVE('',#97,#98,#71,.T.);
#124=EDGE_CURVE('',#98,#97,#72,.T.);
#125=EDGE_CURVE('',#96,#94,#73,.T.);
#126=EDGE_CURVE('',#95,#99,#19,.T.);
#127=EDGE_CURVE('',#100,#99,#74,.T.);
#128=EDGE_CURVE('',#99,#100,#75,.T.);
#129=EDGE_CURVE('',#101,#102,#76,.T.);
#130=EDGE_CURVE('',#102,#101,#77,.T.);
#131=EDGE_CURVE('',#102,#103,#20,.T.);
#132=EDGE_CURVE('',#103,#104,#78,.T.);
#133=EDGE_CURVE('',#104,#103,#79,.T.);
#134=EDGE_CURVE('',#103,#85,#21,.T.);
#135=EDGE_CURVE('',#93,#99,#80,.T.);
#136=EDGE_CURVE('',#89,#105,#22,.T.);
#137=EDGE_CURVE('',#106,#105,#81,.T.);
#138=EDGE_CURVE('',#105,#106,#82,.T.);
#139=EDGE_CURVE('',#86,#105,#83,.T.);
#140=ORIENTED_EDGE('',*,*,#107,.F.);
#141=ORIENTED_EDGE('',*,*,#108,.F.);
#142=ORIENTED_EDGE('',*,*,#109,.T.);
#143=ORIENTED_EDGE('',*,*,#110,.T.);
#144=ORIENTED_EDGE('',*,*,#111,.T.);
#145=ORIENTED_EDGE('',*,*,#109,.F.);
#146=ORIENTED_EDGE('',*,*,#112,.F.);
#147=ORIENTED_EDGE('',*,*,#113,.F.);
#148=ORIENTED_EDGE('',*,*,#114,.T.);
#149=ORIENTED_EDGE('',*,*,#115,.T.);
#150=ORIENTED_EDGE('',*,*,#116,.T.);
#151=ORIENTED_EDGE('',*,*,#114,.F.);
#152=ORIENTED_EDGE('',*,*,#117,.F.);
#153=ORIENTED_EDGE('',*,*,#118,.F.);
#154=ORIENTED_EDGE('',*,*,#119,.T.);
#155=ORIENTED_EDGE('',*,*,#116,.F.);
#156=ORIENTED_EDGE('',*,*,#115,.F.);
#157=ORIENTED_EDGE('',*,*,#119,.F.);
#158=ORIENTED_EDGE('',*,*,#120,.T.);
#159=ORIENTED_EDGE('',*,*,#121,.T.);
#160=ORIENTED_EDGE('',*,*,#122,.T.);
#161=ORIENTED_EDGE('',*,*,#123,.T.);
#162=ORIENTED_EDGE('',*,*,#124,.T.);
#163=ORIENTED_EDGE('',*,*,#122,.F.);
#164=ORIENTED_EDGE('',*,*,#125,.T.);
#165=ORIENTED_EDGE('',*,*,#124,.F.);
#166=ORIENTED_EDGE('',*,*,#123,.F.);
#167=ORIENTED_EDGE('',*,*,#120,.F.);
#168=ORIENTED_EDGE('',*,*,#125,.F.);
#169=ORIENTED_EDGE('',*,*,#121,.F.);
#170=ORIENTED_EDGE('',*,*,#126,.T.);
#171=ORIENTED_EDGE('',*,*,#127,.F.);
#172=ORIENTED_EDGE('',*,*,#128,.F.);
#173=ORIENTED_EDGE('',*,*,#126,.F.);
#174=ORIENTED_EDGE('',*,*,#129,.F.);
#175=ORIENTED_EDGE('',*,*,#130,.F.);
#176=ORIENTED_EDGE('',*,*,#131,.T.);
#177=ORIENTED_EDGE('',*,*,#132,.T.);
#178=ORIENTED_EDGE('',*,*,#133,.T.);
#179=ORIENTED_EDGE('',*,*,#131,.F.);
#180=ORIENTED_EDGE('',*,*,#129,.T.);
#181=ORIENTED_EDGE('',*,*,#130,.T.);
#182=ORIENTED_EDGE('',*,*,#133,.F.);
#183=ORIENTED_EDGE('',*,*,#132,.F.);
#184=ORIENTED_EDGE('',*,*,#134,.T.);
#185=ORIENTED_EDGE('',*,*,#108,.T.);
#186=ORIENTED_EDGE('',*,*,#107,.T.);
#187=ORIENTED_EDGE('',*,*,#134,.F.);
#188=ORIENTED_EDGE('',*,*,#117,.T.);
#189=ORIENTED_EDGE('',*,*,#135,.T.);
#190=ORIENTED_EDGE('',*,*,#128,.T.);
#191=ORIENTED_EDGE('',*,*,#127,.T.);
#192=ORIENTED_EDGE('',*,*,#135,.F.);
#193=ORIENTED_EDGE('',*,*,#118,.T.);
#194=ORIENTED_EDGE('',*,*,#112,.T.);
#195=ORIENTED_EDGE('',*,*,#136,.T.);
#196=ORIENTED_EDGE('',*,*,#137,.F.);
#197=ORIENTED_EDGE('',*,*,#138,.F.);
#198=ORIENTED_EDGE('',*,*,#136,.F.);
#199=ORIENTED_EDGE('',*,*,#113,.T.);
#200=ORIENTED_EDGE('',*,*,#111,.F.);
#201=ORIENTED_EDGE('',*,*,#110,.F.);
#202=ORIENTED_EDGE('',*,*,#139,.T.);
#203=ORIENTED_EDGE('',*,*,#138,.T.);
#204=ORIENTED_EDGE('',*,*,#137,.T.);
#205=ORIENTED_EDGE('',*,*,#139,.F.);
#206=TOROIDAL_SURFACE('',#243,8.02495873448258,3.33016050251765);
#207=TOROIDAL_SURFACE('',#249,10.5,3.);
#208=TOROIDAL_SURFACE('',#258,6.85,0.8);
#209=TOROIDAL_SURFACE('',#276,9.65,2.);
#210=TOROIDAL_SURFACE('',#281,8.45,0.6);
#211=ADVANCED_FACE('',(#32),#206,.T.);
#212=ADVANCED_FACE('',(#33),#207,.T.);
#213=ADVANCED_FACE('',(#34),#28,.F.);
#214=ADVANCED_FACE('',(#35),#208,.F.);
#215=ADVANCED_FACE('',(#36),#16,.T.);
#216=ADVANCED_FACE('',(#37),#29,.F.);
#217=ADVANCED_FACE('',(#38),#15,.T.);
#218=ADVANCED_FACE('',(#39),#17,.T.);
#219=ADVANCED_FACE('',(#40),#30,.T.);
#220=ADVANCED_FACE('',(#41),#209,.T.);
#221=ADVANCED_FACE('',(#42),#31,.F.);
#222=ADVANCED_FACE('',(#43),#210,.T.);
#223=CLOSED_SHELL('',(#211,#212,#213,#214,#215,#216,#217,#218,#219,#220,
#221,#222));
#224=DERIVED_UNIT_ELEMENT(#226,1.);
#225=DERIVED_UNIT_ELEMENT(#444,3.);
#226=(
MASS_UNIT()
NAMED_UNIT(*)
SI_UNIT($,.GRAM.)
);
#227=DERIVED_UNIT((#224,#225));
#228=MEASURE_REPRESENTATION_ITEM('density measure',
POSITIVE_RATIO_MEASURE(1.),#227);
#229=PROPERTY_DEFINITION_REPRESENTATION(#234,#231);
#230=PROPERTY_DEFINITION_REPRESENTATION(#235,#232);
#231=REPRESENTATION('material name',(#233),#441);
#232=REPRESENTATION('density',(#228),#441);
#233=DESCRIPTIVE_REPRESENTATION_ITEM('Generico','Generico');
#234=PROPERTY_DEFINITION('material property','material name',#451);
#235=PROPERTY_DEFINITION('material property','density of part',#451);
#236=DATE_TIME_ROLE('creation_date');
#237=APPLIED_DATE_AND_TIME_ASSIGNMENT(#238,#236,(#451));
#238=DATE_AND_TIME(#239,#240);
#239=CALENDAR_DATE(2016,12,1);
#240=LOCAL_TIME(11,26,25.,#241);
#241=COORDINATED_UNIVERSAL_TIME_OFFSET(0,0,.BEHIND.);
#242=AXIS2_PLACEMENT_3D('placement',#370,#283,#284);
#243=AXIS2_PLACEMENT_3D('',#371,#285,#286);
#244=AXIS2_PLACEMENT_3D('',#374,#287,#288);
#245=AXIS2_PLACEMENT_3D('',#375,#289,#290);
#246=AXIS2_PLACEMENT_3D('',#377,#291,#292);
#247=AXIS2_PLACEMENT_3D('',#379,#293,#294);
#248=AXIS2_PLACEMENT_3D('',#380,#295,#296);
#249=AXIS2_PLACEMENT_3D('',#381,#297,#298);
#250=AXIS2_PLACEMENT_3D('',#384,#299,#300);
#251=AXIS2_PLACEMENT_3D('',#385,#301,#302);
#252=AXIS2_PLACEMENT_3D('',#387,#303,#304);
#253=AXIS2_PLACEMENT_3D('',#389,#305,#306);
#254=AXIS2_PLACEMENT_3D('',#390,#307,#308);
#255=AXIS2_PLACEMENT_3D('',#391,#309,#310);
#256=AXIS2_PLACEMENT_3D('',#394,#311,#312);
#257=AXIS2_PLACEMENT_3D('',#395,#313,#314);
#258=AXIS2_PLACEMENT_3D('',#397,#316,#317);
#259=AXIS2_PLACEMENT_3D('',#400,#318,#319);
#260=AXIS2_PLACEMENT_3D('',#402,#320,#321);
#261=AXIS2_PLACEMENT_3D('',#404,#322,#323);
#262=AXIS2_PLACEMENT_3D('',#406,#324,#325);
#263=AXIS2_PLACEMENT_3D('',#407,#326,#327);
#264=AXIS2_PLACEMENT_3D('',#408,#328,#329);
#265=AXIS2_PLACEMENT_3D('',#409,#330,#331);
#266=AXIS2_PLACEMENT_3D('',#410,#332,#333);
#267=AXIS2_PLACEMENT_3D('',#414,#335,#336);
#268=AXIS2_PLACEMENT_3D('',#415,#337,#338);
#269=AXIS2_PLACEMENT_3D('',#416,#339,#340);
#270=AXIS2_PLACEMENT_3D('',#419,#341,#342);
#271=AXIS2_PLACEMENT_3D('',#420,#343,#344);
#272=AXIS2_PLACEMENT_3D('',#424,#346,#347);
#273=AXIS2_PLACEMENT_3D('',#425,#348,#349);
#274=AXIS2_PLACEMENT_3D('',#426,#350,#351);
#275=AXIS2_PLACEMENT_3D('',#427,#352,#353);
#276=AXIS2_PLACEMENT_3D('',#429,#355,#356);
#277=AXIS2_PLACEMENT_3D('',#430,#357,#358);
#278=AXIS2_PLACEMENT_3D('',#431,#359,#360);
#279=AXIS2_PLACEMENT_3D('',#435,#362,#363);
#280=AXIS2_PLACEMENT_3D('',#436,#364,#365);
#281=AXIS2_PLACEMENT_3D('',#437,#366,#367);
#282=AXIS2_PLACEMENT_3D('',#438,#368,#369);
#283=DIRECTION('axis',(0.,0.,1.));
#284=DIRECTION('refdir',(1.,0.,0.));
#285=DIRECTION('center_axis',(0.,1.,0.));
#286=DIRECTION('ref_axis',(0.,0.,1.));
#287=DIRECTION('center_axis',(0.,1.,0.));
#288=DIRECTION('ref_axis',(0.,0.,1.));
#289=DIRECTION('center_axis',(0.,1.,0.));
#290=DIRECTION('ref_axis',(0.,0.,1.));
#291=DIRECTION('center_axis',(-1.,0.,1.22464679914735E-16));
#292=DIRECTION('ref_axis',(-1.22464679914735E-16,0.,-1.));
#293=DIRECTION('center_axis',(0.,1.,0.));
#294=DIRECTION('ref_axis',(0.,5.58382362952342E-18,1.));
#295=DIRECTION('center_axis',(0.,1.,0.));
#296=DIRECTION('ref_axis',(0.,5.58382362952342E-18,1.));
#297=DIRECTION('center_axis',(0.,1.,0.));
#298=DIRECTION('ref_axis',(0.,0.,1.));
#299=DIRECTION('center_axis',(0.,1.,0.));
#300=DIRECTION('ref_axis',(1.,0.,0.));
#301=DIRECTION('center_axis',(0.,1.,0.));
#302=DIRECTION('ref_axis',(1.,0.,0.));
#303=DIRECTION('center_axis',(-1.,0.,1.22464679914735E-16));
#304=DIRECTION('ref_axis',(-1.22464679914735E-16,0.,-1.));
#305=DIRECTION('center_axis',(0.,1.,0.));
#306=DIRECTION('ref_axis',(1.,0.,0.));
#307=DIRECTION('center_axis',(0.,1.,0.));
#308=DIRECTION('ref_axis',(1.,0.,0.));
#309=DIRECTION('center_axis',(0.,1.,0.));
#310=DIRECTION('ref_axis',(0.,0.,1.));
#311=DIRECTION('center_axis',(0.,-1.,0.));
#312=DIRECTION('ref_axis',(0.,0.,1.));
#313=DIRECTION('center_axis',(0.,-1.,0.));
#314=DIRECTION('ref_axis',(0.,0.,1.));
#315=DIRECTION('',(0.,-1.,0.));
#316=DIRECTION('center_axis',(0.,-1.,0.));
#317=DIRECTION('ref_axis',(0.,0.,-1.));
#318=DIRECTION('center_axis',(0.,-1.,0.));
#319=DIRECTION('ref_axis',(1.,0.,0.));
#320=DIRECTION('center_axis',(0.,-1.,0.));
#321=DIRECTION('ref_axis',(1.,0.,0.));
#322=DIRECTION('center_axis',(-1.,0.,-1.22464679914735E-16));
#323=DIRECTION('ref_axis',(-1.22464679914735E-16,0.,1.));
#324=DIRECTION('center_axis',(0.,1.,0.));
#325=DIRECTION('ref_axis',(1.,0.,0.));
#326=DIRECTION('center_axis',(0.,1.,0.));
#327=DIRECTION('ref_axis',(1.,0.,0.));
#328=DIRECTION('center_axis',(0.,-1.,0.));
#329=DIRECTION('ref_axis',(1.,0.,0.));
#330=DIRECTION('center_axis',(0.,-1.,0.));
#331=DIRECTION('ref_axis',(0.,0.,-1.));
#332=DIRECTION('center_axis',(0.,1.,0.));
#333=DIRECTION('ref_axis',(0.,0.,1.));
#334=DIRECTION('',(0.,-1.,0.));
#335=DIRECTION('center_axis',(0.,1.,0.));
#336=DIRECTION('ref_axis',(0.,0.,1.));
#337=DIRECTION('center_axis',(0.,1.,0.));
#338=DIRECTION('ref_axis',(0.,0.,1.));
#339=DIRECTION('center_axis',(0.,-1.,0.));
#340=DIRECTION('ref_axis',(0.,0.,1.));
#341=DIRECTION('center_axis',(0.,1.,0.));
#342=DIRECTION('ref_axis',(1.,0.,0.));
#343=DIRECTION('center_axis',(0.,1.,0.));
#344=DIRECTION('ref_axis',(1.,0.,0.));
#345=DIRECTION('',(-8.65956056235493E-17,-0.707106781186548,-0.707106781186547));
#346=DIRECTION('center_axis',(0.,1.,0.));
#347=DIRECTION('ref_axis',(1.,0.,0.));
#348=DIRECTION('center_axis',(0.,1.,0.));
#349=DIRECTION('ref_axis',(1.,0.,0.));
#350=DIRECTION('center_axis',(0.,1.,0.));
#351=DIRECTION('ref_axis',(0.,0.,1.));
#352=DIRECTION('center_axis',(0.,1.,0.));
#353=DIRECTION('ref_axis',(0.,0.,1.));
#354=DIRECTION('',(0.,-1.,0.));
#355=DIRECTION('center_axis',(0.,1.,0.));
#356=DIRECTION('ref_axis',(0.,0.,1.));
#357=DIRECTION('center_axis',(-1.,0.,1.22464679914735E-16));
#358=DIRECTION('ref_axis',(-1.22464679914735E-16,0.,-1.));
#359=DIRECTION('center_axis',(0.,1.,0.));
#360=DIRECTION('ref_axis',(0.,0.,1.));
#361=DIRECTION('',(0.,-1.,0.));
#362=DIRECTION('center_axis',(0.,1.,0.));
#363=DIRECTION('ref_axis',(0.,0.,1.));
#364=DIRECTION('center_axis',(0.,1.,0.));
#365=DIRECTION('ref_axis',(0.,0.,1.));
#366=DIRECTION('center_axis',(0.,1.,0.));
#367=DIRECTION('ref_axis',(0.,0.,1.));
#368=DIRECTION('center_axis',(-1.,0.,1.22464679914735E-16));
#369=DIRECTION('ref_axis',(-1.22464679914735E-16,0.,-1.));
#370=CARTESIAN_POINT('',(0.,0.,0.));
#371=CARTESIAN_POINT('Origin',(0.,3.29687157501332,0.));
#372=CARTESIAN_POINT('',(0.,6.43123771881522,9.15));
#373=CARTESIAN_POINT('',(-1.12055182121983E-15,6.43123771881522,-9.15));
#374=CARTESIAN_POINT('Origin',(0.,6.43123771881522,0.));
#375=CARTESIAN_POINT('Origin',(0.,6.43123771881522,0.));
#376=CARTESIAN_POINT('',(-1.0462659919679E-15,0.00731581769065015,-8.54341017096807));
#377=CARTESIAN_POINT('Origin',(-9.82774002747369E-16,3.29687157501332,-8.02495873448258));
#378=CARTESIAN_POINT('',(0.,0.00731581769065195,8.54341017096807));
#379=CARTESIAN_POINT('Origin',(0.,0.00731581769065015,0.));
#380=CARTESIAN_POINT('Origin',(0.,0.00731581769065015,0.));
#381=CARTESIAN_POINT('Origin',(0.,3.29687157501332,0.));
#382=CARTESIAN_POINT('',(0.,1.89063546397079,7.85));
#383=CARTESIAN_POINT('',(-9.61347737330673E-16,1.89063546397079,-7.85));
#384=CARTESIAN_POINT('Origin',(0.,1.89063546397079,0.));
#385=CARTESIAN_POINT('Origin',(0.,1.89063546397079,0.));
#386=CARTESIAN_POINT('',(-9.61347737330673E-16,4.70310768605584,-7.85));
#387=CARTESIAN_POINT('Origin',(-1.28587913910472E-15,3.29687157501332,-10.5));
#388=CARTESIAN_POINT('',(0.,4.70310768605584,7.85));
#389=CARTESIAN_POINT('Origin',(0.,4.70310768605584,0.));
#390=CARTESIAN_POINT('Origin',(0.,4.70310768605584,0.));
#391=CARTESIAN_POINT('Origin',(0.,5.18901783500043,0.));
#392=CARTESIAN_POINT('',(0.,5.67492798394501,7.85));
#393=CARTESIAN_POINT('',(-9.61347737330673E-16,5.67492798394501,-7.85));
#394=CARTESIAN_POINT('Origin',(0.,5.67492798394501,0.));
#395=CARTESIAN_POINT('Origin',(0.,5.67492798394501,0.));
#396=CARTESIAN_POINT('',(-9.61347737330673E-16,5.18901783500043,-7.85));
#397=CARTESIAN_POINT('Origin',(0.,20.2,0.));
#398=CARTESIAN_POINT('',(-7.65,20.2,-9.36854801347725E-16));
#399=CARTESIAN_POINT('',(-9.36854801347725E-16,20.2,-7.65));
#400=CARTESIAN_POINT('Origin',(0.,20.2,0.));
#401=CARTESIAN_POINT('',(-9.36854801347725E-16,20.2,7.65));
#402=CARTESIAN_POINT('Origin',(0.,20.2,0.));
#403=CARTESIAN_POINT('',(-8.38883057415937E-16,21.,6.85));
#404=CARTESIAN_POINT('Origin',(-8.38883057415937E-16,20.2,6.85));
#405=CARTESIAN_POINT('',(-6.85,21.,8.38883057415937E-16));
#406=CARTESIAN_POINT('Origin',(0.,21.,0.));
#407=CARTESIAN_POINT('Origin',(0.,21.,0.));
#408=CARTESIAN_POINT('Origin',(0.,20.2,0.));
#409=CARTESIAN_POINT('Origin',(0.,21.,9.15));
#410=CARTESIAN_POINT('Origin',(0.,13.2733538863266,0.));
#411=CARTESIAN_POINT('',(-9.36854801347725E-16,6.54670777265315,-7.65));
#412=CARTESIAN_POINT('',(-9.36854801347725E-16,13.2733538863266,-7.65));
#413=CARTESIAN_POINT('',(0.,6.54670777265315,7.65));
#414=CARTESIAN_POINT('Origin',(0.,6.54670777265315,0.));
#415=CARTESIAN_POINT('Origin',(0.,6.54670777265315,0.));
#416=CARTESIAN_POINT('Origin',(0.,25.5,0.));
#417=CARTESIAN_POINT('',(0.,26.,8.15));
#418=CARTESIAN_POINT('',(-9.98087141305093E-16,26.,-8.15));
#419=CARTESIAN_POINT('Origin',(0.,26.,0.));
#420=CARTESIAN_POINT('Origin',(0.,26.,0.));
#421=CARTESIAN_POINT('',(-1.12055182121983E-15,25.,-9.15));
#422=CARTESIAN_POINT('',(-1.05931948126246E-15,25.5,-8.65));
#423=CARTESIAN_POINT('',(0.,25.,9.15));
#424=CARTESIAN_POINT('Origin',(0.,25.,0.));
#425=CARTESIAN_POINT('Origin',(0.,25.,0.));
#426=CARTESIAN_POINT('Origin',(0.,26.,0.));
#427=CARTESIAN_POINT('Origin',(0.,13.2156188594076,0.));
#428=CARTESIAN_POINT('',(-1.12055182121983E-15,13.2156188594076,-9.15));
#429=CARTESIAN_POINT('Origin',(0.,6.54670777265315,0.));
#430=CARTESIAN_POINT('Origin',(-1.1817841611772E-15,6.54670777265315,-9.65));
#431=CARTESIAN_POINT('Origin',(0.,0.888675134594814,0.));
#432=CARTESIAN_POINT('',(-9.61347737330672E-16,0.6,-7.85));
#433=CARTESIAN_POINT('',(-9.61347737330672E-16,0.888675134594814,-7.85));
#434=CARTESIAN_POINT('',(0.,0.6,7.85));
#435=CARTESIAN_POINT('Origin',(0.,0.6,0.));
#436=CARTESIAN_POINT('Origin',(0.,0.6,0.));
#437=CARTESIAN_POINT('Origin',(0.,0.6,0.));
#438=CARTESIAN_POINT('Origin',(-1.03482654527951E-15,0.6,-8.45));
#439=UNCERTAINTY_MEASURE_WITH_UNIT(LENGTH_MEASURE(0.01),#443,
'DISTANCE_ACCURACY_VALUE',
'Maximum model space distance between geometric entities at asserted c
onnectivities');
#440=UNCERTAINTY_MEASURE_WITH_UNIT(LENGTH_MEASURE(0.01),#443,
'DISTANCE_ACCURACY_VALUE',
'Maximum model space distance between geometric entities at asserted c
onnectivities');
#441=(
GEOMETRIC_REPRESENTATION_CONTEXT(3)
GLOBAL_UNCERTAINTY_ASSIGNED_CONTEXT((#439))
GLOBAL_UNIT_ASSIGNED_CONTEXT((#443,#445,#446))
REPRESENTATION_CONTEXT('','3D')
);
#442=(
GEOMETRIC_REPRESENTATION_CONTEXT(3)
GLOBAL_UNCERTAINTY_ASSIGNED_CONTEXT((#440))
GLOBAL_UNIT_ASSIGNED_CONTEXT((#443,#445,#446))
REPRESENTATION_CONTEXT('','3D')
);
#443=(
LENGTH_UNIT()
NAMED_UNIT(*)
SI_UNIT(.MILLI.,.METRE.)
);
#444=(
LENGTH_UNIT()
NAMED_UNIT(*)
SI_UNIT(.CENTI.,.METRE.)
);
#445=(
NAMED_UNIT(*)
PLANE_ANGLE_UNIT()
SI_UNIT($,.RADIAN.)
);
#446=(
NAMED_UNIT(*)
SI_UNIT($,.STERADIAN.)
SOLID_ANGLE_UNIT()
);
#447=SHAPE_DEFINITION_REPRESENTATION(#448,#449);
#448=PRODUCT_DEFINITION_SHAPE('',$,#451);
#449=SHAPE_REPRESENTATION('',(#242),#441);
#450=PRODUCT_DEFINITION_CONTEXT('part definition',#455,'design');
#451=PRODUCT_DEFINITION('383015003_Steelpres','383015003_Steelpres',#452,
#450);
#452=PRODUCT_DEFINITION_FORMATION('0',$,#457);
#453=PRODUCT_RELATED_PRODUCT_CATEGORY('383015003_Steelpres',
'383015003_Steelpres',(#457));
#454=APPLICATION_PROTOCOL_DEFINITION('international standard',
'automotive_design',2009,#455);
#455=APPLICATION_CONTEXT(
'Core Data for Automotive Mechanical Design Process');
#456=PRODUCT_CONTEXT('part definition',#455,'mechanical');
#457=PRODUCT('383015003_Steelpres','383015003_Steelpres',
'TAPPO DI CHIUSURA DN15',(#456));
#458=PRESENTATION_STYLE_ASSIGNMENT((#459));
#459=SURFACE_STYLE_USAGE(.BOTH.,#462);
#460=SURFACE_STYLE_RENDERING_WITH_PROPERTIES($,#466,(#461));
#461=SURFACE_STYLE_TRANSPARENT(0.);
#462=SURFACE_SIDE_STYLE('',(#463,#460));
#463=SURFACE_STYLE_FILL_AREA(#464);
#464=FILL_AREA_STYLE('',(#465));
#465=FILL_AREA_STYLE_COLOUR('',#466);
#466=COLOUR_RGB('',0.886274509803922,0.917647058823529,0.894117647058824);
ENDSEC;
END-ISO-10303-21;
