ISO-10303-21;
HEADER;
FILE_DESCRIPTION (( 'STEP AP203' ),
    '1' );
FILE_NAME ('6015281_OSTP.step',
    '2024-03-20T08:46:23',
    ( '' ),
    ( '' ),
    'SwSTEP 2.0',
    'SolidWorks 2014',
    '' );
FILE_SCHEMA (( 'CONFIG_CONTROL_DESIGN' ));
ENDSEC;

DATA;
#1 = CIRCLE ( 'NONE', #146, 286.0000000000000000 ) ;
#2 = DIRECTION ( 'NONE',  ( 9.184850993605148400E-017, -1.000000000000000000, 0.0000000000000000000 ) ) ;
#3 = AXIS2_PLACEMENT_3D ( 'NONE', #350, #2, #131 ) ;
#4 = AXIS2_PLACEMENT_3D ( 'NONE', #54, #121, #190 ) ;
#5 = FACE_OUTER_BOUND ( 'NONE', #277, .T. ) ;
#6 = DIRECTION ( 'NONE',  ( 1.000000000000000000, 0.0000000000000000000, -1.224646799147349500E-016 ) ) ;
#7 = CALENDAR_DATE ( 2024, 20, 3 ) ;
#8 = CARTESIAN_POINT ( 'NONE',  ( -3.673940397442053700E-015, 39.99999999999994300, 0.0000000000000000000 ) ) ;
#9 = ORIENTED_EDGE ( 'NONE', *, *, #93, .F. ) ;
#10 = EDGE_CURVE ( 'NONE', #211, #374, #90, .T. ) ;
#11 = LOCAL_TIME ( 9, 46, 23.00000000000000000, #168 ) ;
#12 = CIRCLE ( 'NONE', #403, 250.0000000000001100 ) ;
#13 = ADVANCED_FACE ( 'NONE', ( #314 ), #253, .F. ) ;
#14 = ORIENTED_EDGE ( 'NONE', *, *, #68, .F. ) ;
#15 = COORDINATED_UNIVERSAL_TIME_OFFSET ( 1, 0, .AHEAD. ) ;
#16 = ADVANCED_FACE ( 'NONE', ( #206 ), #256, .T. ) ;
#17 = DIRECTION ( 'NONE',  ( -1.000000000000000000, 0.0000000000000000000, 0.0000000000000000000 ) ) ;
#18 = ADVANCED_FACE ( 'NONE', ( #157 ), #347, .T. ) ;
#19 = AXIS2_PLACEMENT_3D ( 'NONE', #71, #110, #389 ) ;
#20 = ORIENTED_EDGE ( 'NONE', *, *, #49, .F. ) ;
#21 = AXIS2_PLACEMENT_3D ( 'NONE', #229, #313, #133 ) ;
#22 = CIRCLE ( 'NONE', #78, 254.0000000000000000 ) ;
#23 = DIRECTION ( 'NONE',  ( -9.184850993605148400E-017, 1.000000000000000000, -0.0000000000000000000 ) ) ;
#24 = ORIENTED_EDGE ( 'NONE', *, *, #285, .F. ) ;
#25 = ORIENTED_EDGE ( 'NONE', *, *, #212, .T. ) ;
#26 = PERSON_AND_ORGANIZATION ( #37, #47 ) ;
#27 = DIRECTION ( 'NONE',  ( 1.224646799147353200E-016, 1.124819836996393200E-032, 1.000000000000000000 ) ) ;
#28 = CARTESIAN_POINT ( 'NONE',  ( 0.0000000000000000000, 0.0000000000000000000, 0.0000000000000000000 ) ) ;
#29 = ORIENTED_EDGE ( 'NONE', *, *, #184, .F. ) ;
#30 = EDGE_CURVE ( 'NONE', #393, #203, #83, .T. ) ;
#31 = DESIGN_CONTEXT ( 'detailed design', #32, 'design' ) ;
#32 = APPLICATION_CONTEXT ( 'configuration controlled 3d designs of mechanical parts and assemblies' ) ;
#33 = EDGE_CURVE ( 'NONE', #402, #232, #289, .T. ) ;
#34 = DIRECTION ( 'NONE',  ( 1.224646799147353200E-016, 1.124819836996393200E-032, 1.000000000000000000 ) ) ;
#35 = CIRCLE ( 'NONE', #270, 4.000000000000003600 ) ;
#36 = EDGE_LOOP ( 'NONE', ( #275, #112 ) ) ;
#37 = PERSON ( 'UNSPECIFIED', 'UNSPECIFIED', 'UNSPECIFIED', ('UNSPECIFIED'), ('UNSPECIFIED'), ('UNSPECIFIED') ) ;
#38 = LOCAL_TIME ( 9, 46, 23.00000000000000000, #355 ) ;
#39 = DIRECTION ( 'NONE',  ( -1.000000000000000000, -9.184850993605148400E-017, 0.0000000000000000000 ) ) ;
#40 = CIRCLE ( 'NONE', #310, 4.000000000000003600 ) ;
#41 = AXIS2_PLACEMENT_3D ( 'NONE', #259, #322, #136 ) ;
#42 = DIRECTION ( 'NONE',  ( -1.000000000000000000, -8.326672684688667900E-017, 0.0000000000000000000 ) ) ;
#43 = DIRECTION ( 'NONE',  ( 0.0000000000000000000, 0.0000000000000000000, -1.000000000000000000 ) ) ;
#44 = VERTEX_POINT ( 'NONE', #172 ) ;
#45 = COORDINATED_UNIVERSAL_TIME_OFFSET ( 1, 0, .AHEAD. ) ;
#46 = DIRECTION ( 'NONE',  ( 1.000000000000000000, 9.184850993605148400E-017, 0.0000000000000000000 ) ) ;
#47 = ORGANIZATION ( 'UNSPECIFIED', 'UNSPECIFIED', '' ) ;
#48 = PRODUCT_DEFINITION_SHAPE ( 'NONE', 'NONE',  #400 ) ;
#49 = EDGE_CURVE ( 'NONE', #158, #374, #59, .T. ) ;
#50 = EDGE_CURVE ( 'NONE', #56, #44, #1, .T. ) ;
#51 = ORIENTED_EDGE ( 'NONE', *, *, #395, .F. ) ;
#52 = PERSON_AND_ORGANIZATION ( #37, #47 ) ;
#53 = DIRECTION ( 'NONE',  ( -1.000000000000000000, -8.195543980992789700E-017, 0.0000000000000000000 ) ) ;
#54 = CARTESIAN_POINT ( 'NONE',  ( 258.0000000000000000, 8.000000000000039100, 0.0000000000000000000 ) ) ;
#55 = FACE_OUTER_BOUND ( 'NONE', #95, .T. ) ;
#56 = VERTEX_POINT ( 'NONE', #132 ) ;
#57 = APPROVAL_DATE_TIME ( #394, #189 ) ;
#58 = AXIS2_PLACEMENT_3D ( 'NONE', #404, #82, #345 ) ;
#59 = CIRCLE ( 'NONE', #3, 254.0000000000000000 ) ;
#60 = ORIENTED_EDGE ( 'NONE', *, *, #33, .F. ) ;
#61 = CARTESIAN_POINT ( 'NONE',  ( 254.0000000000000000, 4.000000000000034600, 0.0000000000000000000 ) ) ;
#62 = TOROIDAL_SURFACE ( 'NONE', #21, 250.0000000000000000, 4.000000000000000000 ) ;
#63 = CARTESIAN_POINT ( 'NONE',  ( 254.0000000000000000, 39.99999999999998600, 3.110602869834277200E-014 ) ) ;
#64 = EDGE_LOOP ( 'NONE', ( #344, #352, #140, #51 ) ) ;
#65 = DATE_AND_TIME ( #333, #38 ) ;
#66 = DIRECTION ( 'NONE',  ( 9.184850993605148400E-017, -1.000000000000000000, 0.0000000000000000000 ) ) ;
#67 = ORIENTED_EDGE ( 'NONE', *, *, #265, .F. ) ;
#68 = EDGE_CURVE ( 'NONE', #232, #158, #35, .T. ) ;
#69 = APPROVAL_PERSON_ORGANIZATION ( #26, #189, #399 ) ;
#70 = SECURITY_CLASSIFICATION ( '', '', #367 ) ;
#71 = CARTESIAN_POINT ( 'NONE',  ( -3.306546357697850200E-015, 35.99999999999997200, 0.0000000000000000000 ) ) ;
#72 = PERSON_AND_ORGANIZATION_ROLE ( 'classification_officer' ) ;
#73 = CIRCLE ( 'NONE', #155, 286.0000000000000000 ) ;
#74 = DIRECTION ( 'NONE',  ( -9.184850993605148400E-017, 1.000000000000000000, -0.0000000000000000000 ) ) ;
#75 = ORIENTED_EDGE ( 'NONE', *, *, #212, .F. ) ;
#76 = LOCAL_TIME ( 9, 46, 23.00000000000000000, #127 ) ;
#77 = ADVANCED_FACE ( 'NONE', ( #5 ), #165, .F. ) ;
#78 = AXIS2_PLACEMENT_3D ( 'NONE', #309, #126, #281 ) ;
#79 = CIRCLE ( 'NONE', #336, 258.0000000000000000 ) ;
#80 = PRODUCT_DEFINITION_FORMATION_WITH_SPECIFIED_SOURCE ( 'ANY', '', #324, .NOT_KNOWN. ) ;
#81 = ORIENTED_EDGE ( 'NONE', *, *, #10, .F. ) ;
#82 = DIRECTION ( 'NONE',  ( -9.184850993605148400E-017, 1.000000000000000000, -0.0000000000000000000 ) ) ;
#83 = CIRCLE ( 'NONE', #182, 290.0000000000000000 ) ;
#84 = ORIENTED_EDGE ( 'NONE', *, *, #137, .T. ) ;
#85 =( LENGTH_UNIT ( ) NAMED_UNIT ( * ) SI_UNIT ( .MILLI., .METRE. ) );
#86 = APPLICATION_PROTOCOL_DEFINITION ( 'international standard', 'config_control_design', 1994, #194 ) ;
#87 = APPROVAL_STATUS ( 'not_yet_approved' ) ;
#88 = CARTESIAN_POINT ( 'NONE',  ( -250.0000000000001100, 1.088768566902244600E-013, 0.0000000000000000000 ) ) ;
#89 = EDGE_CURVE ( 'NONE', #348, #335, #325, .T. ) ;
#90 = CIRCLE ( 'NONE', #115, 4.000000000000003600 ) ;
#91 = APPLICATION_PROTOCOL_DEFINITION ( 'international standard', 'config_control_design', 1994, #32 ) ;
#92 = LOCAL_TIME ( 9, 46, 23.00000000000000000, #15 ) ;
#93 = EDGE_CURVE ( 'NONE', #335, #158, #354, .T. ) ;
#94 = APPROVAL_ROLE ( '' ) ;
#95 = EDGE_LOOP ( 'NONE', ( #268, #261, #177, #67 ) ) ;
#96 = APPROVAL ( #311, 'UNSPECIFIED' ) ;
#97 = DIRECTION ( 'NONE',  ( -1.000000000000000000, -8.326672684688670400E-017, 0.0000000000000000000 ) ) ;
#98 = CARTESIAN_POINT ( 'NONE',  ( -3.673940397442064800E-016, 4.000000000000011500, 0.0000000000000000000 ) ) ;
#99 = DIRECTION ( 'NONE',  ( -1.000000000000000000, 0.0000000000000000000, 0.0000000000000000000 ) ) ;
#100 = CIRCLE ( 'NONE', #41, 254.0000000000000000 ) ;
#101 = AXIS2_PLACEMENT_3D ( 'NONE', #156, #220, #304 ) ;
#102 = ORIENTED_EDGE ( 'NONE', *, *, #371, .T. ) ;
#103 =( GEOMETRIC_REPRESENTATION_CONTEXT ( 3 ) GLOBAL_UNCERTAINTY_ASSIGNED_CONTEXT ( ( #214 ) ) GLOBAL_UNIT_ASSIGNED_CONTEXT ( ( #85, #216, #366 ) ) REPRESENTATION_CONTEXT ( 'NONE', 'WORKASPACE' ) );
#104 = DIRECTION ( 'NONE',  ( -9.184850993605148400E-017, 1.000000000000000000, -0.0000000000000000000 ) ) ;
#105 = PERSON_AND_ORGANIZATION ( #37, #47 ) ;
#106 = ORIENTED_EDGE ( 'NONE', *, *, #204, .F. ) ;
#107 = ORIENTED_EDGE ( 'NONE', *, *, #326, .T. ) ;
#108 = CARTESIAN_POINT ( 'NONE',  ( 250.0000000000001100, 1.548011116582502200E-013, 3.061616997868384400E-014 ) ) ;
#109 = APPROVAL_STATUS ( 'not_yet_approved' ) ;
#110 = DIRECTION ( 'NONE',  ( 9.184850993605148400E-017, -1.000000000000000000, 0.0000000000000000000 ) ) ;
#111 = CIRCLE ( 'NONE', #193, 254.0000000000000000 ) ;
#112 = ORIENTED_EDGE ( 'NONE', *, *, #287, .T. ) ;
#113 = EDGE_CURVE ( 'NONE', #44, #56, #73, .T. ) ;
#114 = ADVANCED_FACE ( 'NONE', ( #300, #139 ), #230, .F. ) ;
#115 = AXIS2_PLACEMENT_3D ( 'NONE', #162, #43, #17 ) ;
#116 = CYLINDRICAL_SURFACE ( 'NONE', #236, 254.0000000000000000 ) ;
#117 = ORIENTED_EDGE ( 'NONE', *, *, #353, .F. ) ;
#118 = CC_DESIGN_PERSON_AND_ORGANIZATION_ASSIGNMENT ( #52, #254, ( #400 ) ) ;
#119 = ADVANCED_BREP_SHAPE_REPRESENTATION ( '6015281_OSTP', ( #141, #274 ), #103 ) ;
#120 = CARTESIAN_POINT ( 'NONE',  ( -3.673940397442067800E-016, 4.000000000000011500, 0.0000000000000000000 ) ) ;
#121 = DIRECTION ( 'NONE',  ( 0.0000000000000000000, 0.0000000000000000000, -1.000000000000000000 ) ) ;
#122 = DIRECTION ( 'NONE',  ( -9.184850993605148400E-017, 1.000000000000000000, -0.0000000000000000000 ) ) ;
#123 = FACE_OUTER_BOUND ( 'NONE', #186, .T. ) ;
#124 = ORIENTED_EDGE ( 'NONE', *, *, #341, .T. ) ;
#125 = EDGE_CURVE ( 'NONE', #330, #211, #143, .T. ) ;
#126 = DIRECTION ( 'NONE',  ( 9.184850993605148400E-017, -1.000000000000000000, 0.0000000000000000000 ) ) ;
#127 = COORDINATED_UNIVERSAL_TIME_OFFSET ( 1, 0, .AHEAD. ) ;
#128 = CARTESIAN_POINT ( 'NONE',  ( -3.673940397442056000E-015, 39.99999999999996400, 0.0000000000000000000 ) ) ;
#129 = CC_DESIGN_APPROVAL ( #189, ( #80 ) ) ;
#130 = ORIENTED_EDGE ( 'NONE', *, *, #326, .F. ) ;
#131 = DIRECTION ( 'NONE',  ( 1.000000000000000000, 8.195543980992789700E-017, 0.0000000000000000000 ) ) ;
#132 = CARTESIAN_POINT ( 'NONE',  ( -286.0000000000000000, 3.999999999999985300, 3.526982781544376700E-014 ) ) ;
#133 = DIRECTION ( 'NONE',  ( 1.000000000000000000, 9.184850993605148400E-017, 0.0000000000000000000 ) ) ;
#134 = VECTOR ( 'NONE', #196, 1000.000000000000000 ) ;
#135 = ORIENTED_EDGE ( 'NONE', *, *, #50, .T. ) ;
#136 = DIRECTION ( 'NONE',  ( 1.000000000000000000, 8.878505979408855500E-017, 0.0000000000000000000 ) ) ;
#137 = EDGE_CURVE ( 'NONE', #269, #374, #151, .T. ) ;
#138 = AXIS2_PLACEMENT_3D ( 'NONE', #160, #199, #293 ) ;
#139 = FACE_BOUND ( 'NONE', #36, .T. ) ;
#140 = ORIENTED_EDGE ( 'NONE', *, *, #371, .F. ) ;
#141 = MANIFOLD_SOLID_BREP ( 'Cosmetic_Fillet', #375 ) ;
#142 = ADVANCED_FACE ( 'NONE', ( #294 ), #210, .F. ) ;
#143 = LINE ( 'NONE', #163, #134 ) ;
#144 = EDGE_LOOP ( 'NONE', ( #307, #102, #219, #318 ) ) ;
#145 = ADVANCED_FACE ( 'NONE', ( #123 ), #62, .T. ) ;
#146 = AXIS2_PLACEMENT_3D ( 'NONE', #286, #228, #292 ) ;
#147 = CC_DESIGN_PERSON_AND_ORGANIZATION_ASSIGNMENT ( #398, #234, ( #80 ) ) ;
#148 = EDGE_LOOP ( 'NONE', ( #226, #290 ) ) ;
#149 = DIRECTION ( 'NONE',  ( -1.000000000000000000, -8.195543980992789700E-017, 0.0000000000000000000 ) ) ;
#150 = CARTESIAN_POINT ( 'NONE',  ( -3.673940397442056000E-015, 39.99999999999996400, 0.0000000000000000000 ) ) ;
#151 = LINE ( 'NONE', #63, #368 ) ;
#152 = ORIENTED_EDGE ( 'NONE', *, *, #50, .F. ) ;
#153 = DATE_AND_TIME ( #340, #76 ) ;
#154 = DIRECTION ( 'NONE',  ( 9.184850993605148400E-017, -1.000000000000000000, 0.0000000000000000000 ) ) ;
#155 = AXIS2_PLACEMENT_3D ( 'NONE', #98, #166, #258 ) ;
#156 = CARTESIAN_POINT ( 'NONE',  ( -3.673940397442053700E-015, 39.99999999999994300, 0.0000000000000000000 ) ) ;
#157 = FACE_OUTER_BOUND ( 'NONE', #144, .T. ) ;
#158 = VERTEX_POINT ( 'NONE', #372 ) ;
#159 = AXIS2_PLACEMENT_3D ( 'NONE', #272, #338, #205 ) ;
#160 = CARTESIAN_POINT ( 'NONE',  ( -7.347880794884129600E-016, 8.000000000000014200, 0.0000000000000000000 ) ) ;
#161 = DIRECTION ( 'NONE',  ( 1.000000000000000000, 0.0000000000000000000, -1.224646799147349500E-016 ) ) ;
#162 = CARTESIAN_POINT ( 'NONE',  ( 250.0000000000000000, 35.99999999999999300, 0.0000000000000000000 ) ) ;
#163 = CARTESIAN_POINT ( 'NONE',  ( 250.0000000000001100, 39.99999999999998600, 3.061616997868384400E-014 ) ) ;
#164 = CC_DESIGN_PERSON_AND_ORGANIZATION_ASSIGNMENT ( #263, #213, ( #80 ) ) ;
#165 = CYLINDRICAL_SURFACE ( 'NONE', #358, 250.0000000000001100 ) ;
#166 = DIRECTION ( 'NONE',  ( -9.184850993605148400E-017, 1.000000000000000000, -0.0000000000000000000 ) ) ;
#167 = ORIENTED_EDGE ( 'NONE', *, *, #30, .F. ) ;
#168 = COORDINATED_UNIVERSAL_TIME_OFFSET ( 1, 0, .AHEAD. ) ;
#169 = CARTESIAN_POINT ( 'NONE',  ( 254.0000000000000000, 8.000000000000037300, 3.110602869834277200E-014 ) ) ;
#170 = AXIS2_PLACEMENT_3D ( 'NONE', #255, #376, #39 ) ;
#171 = EDGE_LOOP ( 'NONE', ( #117, #283, #215, #25 ) ) ;
#172 = CARTESIAN_POINT ( 'NONE',  ( 286.0000000000000000, 4.000000000000037300, 0.0000000000000000000 ) ) ;
#173 = DATE_AND_TIME ( #387, #11 ) ;
#174 = APPROVAL ( #109, 'UNSPECIFIED' ) ;
#175 = APPROVAL_ROLE ( '' ) ;
#176 = ADVANCED_FACE ( 'NONE', ( #240, #231 ), #315, .F. ) ;
#177 = ORIENTED_EDGE ( 'NONE', *, *, #395, .T. ) ;
#178 = CARTESIAN_POINT ( 'NONE',  ( 250.0000000000001700, 39.99999999999996400, 3.061616997868385000E-014 ) ) ;
#179 = DIRECTION ( 'NONE',  ( -9.184850993605148400E-017, 1.000000000000000000, -0.0000000000000000000 ) ) ;
#180 = CC_DESIGN_PERSON_AND_ORGANIZATION_ASSIGNMENT ( #329, #221, ( #324 ) ) ;
#181 = ORIENTED_EDGE ( 'NONE', *, *, #353, .T. ) ;
#182 = AXIS2_PLACEMENT_3D ( 'NONE', #276, #187, #397 ) ;
#183 = APPROVAL_PERSON_ORGANIZATION ( #227, #174, #175 ) ;
#184 = EDGE_CURVE ( 'NONE', #44, #203, #306, .T. ) ;
#185 = DIRECTION ( 'NONE',  ( -9.184850993605148400E-017, 1.000000000000000000, -0.0000000000000000000 ) ) ;
#186 = EDGE_LOOP ( 'NONE', ( #319, #359, #130, #81 ) ) ;
#187 = DIRECTION ( 'NONE',  ( -9.184850993605148400E-017, 1.000000000000000000, -0.0000000000000000000 ) ) ;
#188 = EDGE_LOOP ( 'NONE', ( #298, #84, #107, #9 ) ) ;
#189 = APPROVAL ( #87, 'UNSPECIFIED' ) ;
#190 = DIRECTION ( 'NONE',  ( -1.000000000000000000, 0.0000000000000000000, 0.0000000000000000000 ) ) ;
#191 = CARTESIAN_POINT ( 'NONE',  ( -3.673940397442067800E-016, 4.000000000000011500, 0.0000000000000000000 ) ) ;
#192 = VERTEX_POINT ( 'NONE', #320 ) ;
#193 = AXIS2_PLACEMENT_3D ( 'NONE', #250, #122, #370 ) ;
#194 = APPLICATION_CONTEXT ( 'configuration controlled 3d designs of mechanical parts and assemblies' ) ;
#195 = DIRECTION ( 'NONE',  ( -9.184850993605148400E-017, 1.000000000000000000, -0.0000000000000000000 ) ) ;
#196 = DIRECTION ( 'NONE',  ( -9.184850993605148400E-017, 1.000000000000000000, -0.0000000000000000000 ) ) ;
#197 = CIRCLE ( 'NONE', #101, 250.0000000000001700 ) ;
#198 = ORIENTED_EDGE ( 'NONE', *, *, #125, .T. ) ;
#199 = DIRECTION ( 'NONE',  ( 9.184850993605148400E-017, -1.000000000000000000, 0.0000000000000000000 ) ) ;
#200 = SHAPE_DEFINITION_REPRESENTATION ( #48, #119 ) ;
#201 = FACE_OUTER_BOUND ( 'NONE', #188, .T. ) ;
#202 = CARTESIAN_POINT ( 'NONE',  ( -250.0000000000001700, 39.99999999999992200, 0.0000000000000000000 ) ) ;
#203 = VERTEX_POINT ( 'NONE', #373 ) ;
#204 = EDGE_CURVE ( 'NONE', #211, #232, #390, .T. ) ;
#205 = DIRECTION ( 'NONE',  ( -1.000000000000000000, -8.326672684688670400E-017, 0.0000000000000000000 ) ) ;
#206 = FACE_OUTER_BOUND ( 'NONE', #171, .T. ) ;
#207 = PERSON_AND_ORGANIZATION ( #37, #47 ) ;
#208 = ADVANCED_FACE ( 'NONE', ( #55 ), #378, .F. ) ;
#209 = ADVANCED_FACE ( 'NONE', ( #266 ), #297, .T. ) ;
#210 = TOROIDAL_SURFACE ( 'NONE', #138, 258.0000000000000000, 4.000000000000000000 ) ;
#211 = VERTEX_POINT ( 'NONE', #178 ) ;
#212 = EDGE_CURVE ( 'NONE', #203, #393, #385, .T. ) ;
#213 = PERSON_AND_ORGANIZATION_ROLE ( 'creator' ) ;
#214 = UNCERTAINTY_MEASURE_WITH_UNIT (LENGTH_MEASURE( 1.000000000000000100E-005 ), #85, 'distance_accuracy_value', 'NONE');
#215 = ORIENTED_EDGE ( 'NONE', *, *, #184, .T. ) ;
#216 =( NAMED_UNIT ( * ) PLANE_ANGLE_UNIT ( ) SI_UNIT ( $, .RADIAN. ) );
#217 = DIRECTION ( 'NONE',  ( 1.000000000000000000, 9.077041444064687800E-017, 0.0000000000000000000 ) ) ;
#218 = FACE_OUTER_BOUND ( 'NONE', #301, .T. ) ;
#219 = ORIENTED_EDGE ( 'NONE', *, *, #93, .T. ) ;
#220 = DIRECTION ( 'NONE',  ( -9.184850993605148400E-017, 1.000000000000000000, -0.0000000000000000000 ) ) ;
#221 = PERSON_AND_ORGANIZATION_ROLE ( 'design_owner' ) ;
#222 = AXIS2_PLACEMENT_3D ( 'NONE', #61, #316, #223 ) ;
#223 = DIRECTION ( 'NONE',  ( 1.000000000000000000, 9.184850993605148400E-017, 0.0000000000000000000 ) ) ;
#224 = VECTOR ( 'NONE', #317, 1000.000000000000000 ) ;
#225 = CARTESIAN_POINT ( 'NONE',  ( -254.0000000000000000, 39.99999999999994300, 0.0000000000000000000 ) ) ;
#226 = ORIENTED_EDGE ( 'NONE', *, *, #246, .T. ) ;
#227 = PERSON_AND_ORGANIZATION ( #37, #47 ) ;
#228 = DIRECTION ( 'NONE',  ( -9.184850993605148400E-017, 1.000000000000000000, -0.0000000000000000000 ) ) ;
#229 = CARTESIAN_POINT ( 'NONE',  ( -3.306546357697850200E-015, 35.99999999999997200, 0.0000000000000000000 ) ) ;
#230 = PLANE ( 'NONE',  #222 ) ;
#231 = FACE_BOUND ( 'NONE', #148, .T. ) ;
#232 = VERTEX_POINT ( 'NONE', #202 ) ;
#233 = DIRECTION ( 'NONE',  ( 9.184850993605148400E-017, -1.000000000000000000, 0.0000000000000000000 ) ) ;
#234 = PERSON_AND_ORGANIZATION_ROLE ( 'design_supplier' ) ;
#235 = DIRECTION ( 'NONE',  ( -9.184850993605148400E-017, 1.000000000000000000, -0.0000000000000000000 ) ) ;
#236 = AXIS2_PLACEMENT_3D ( 'NONE', #128, #185, #53 ) ;
#237 = ORIENTED_EDGE ( 'NONE', *, *, #113, .T. ) ;
#238 = CC_DESIGN_PERSON_AND_ORGANIZATION_ASSIGNMENT ( #207, #72, ( #70 ) ) ;
#239 = DATE_TIME_ROLE ( 'creation_date' ) ;
#240 = FACE_OUTER_BOUND ( 'NONE', #312, .T. ) ;
#241 = ORIENTED_EDGE ( 'NONE', *, *, #246, .F. ) ;
#242 = APPROVAL_DATE_TIME ( #153, #96 ) ;
#243 = AXIS2_PLACEMENT_3D ( 'NONE', #331, #66, #46 ) ;
#244 = VECTOR ( 'NONE', #104, 1000.000000000000000 ) ;
#245 = ADVANCED_FACE ( 'NONE', ( #218 ), #273, .T. ) ;
#246 = EDGE_CURVE ( 'NONE', #402, #330, #12, .T. ) ;
#247 = EDGE_LOOP ( 'NONE', ( #152, #181, #361, #29 ) ) ;
#248 = PRODUCT_RELATED_PRODUCT_CATEGORY ( 'detail', '', ( #324 ) ) ;
#249 = CARTESIAN_POINT ( 'NONE',  ( 254.0000000000000000, 35.99999999999999300, 3.110602869834277200E-014 ) ) ;
#250 = CARTESIAN_POINT ( 'NONE',  ( -7.347880794884129600E-016, 8.000000000000014200, 0.0000000000000000000 ) ) ;
#251 = AXIS2_PLACEMENT_3D ( 'NONE', #191, #278, #217 ) ;
#252 = DIRECTION ( 'NONE',  ( 1.000000000000000000, 9.077041444064687800E-017, 0.0000000000000000000 ) ) ;
#253 = CYLINDRICAL_SURFACE ( 'NONE', #159, 250.0000000000001100 ) ;
#254 = PERSON_AND_ORGANIZATION_ROLE ( 'creator' ) ;
#255 = CARTESIAN_POINT ( 'NONE',  ( 290.0000000000000000, 1.668482924202477800E-013, 0.0000000000000000000 ) ) ;
#256 = TOROIDAL_SURFACE ( 'NONE', #302, 286.0000000000000000, 4.000000000000000000 ) ;
#257 = CARTESIAN_POINT ( 'NONE',  ( 286.0000000000000000, 4.014646164952517800E-014, 0.0000000000000000000 ) ) ;
#258 = DIRECTION ( 'NONE',  ( 1.000000000000000000, 9.098200048829407700E-017, 0.0000000000000000000 ) ) ;
#259 = CARTESIAN_POINT ( 'NONE',  ( -7.347880794884129600E-016, 8.000000000000014200, 0.0000000000000000000 ) ) ;
#260 = CIRCLE ( 'NONE', #251, 258.0000000000000000 ) ;
#261 = ORIENTED_EDGE ( 'NONE', *, *, #381, .F. ) ;
#262 = AXIS2_PLACEMENT_3D ( 'NONE', #351, #235, #267 ) ;
#263 = PERSON_AND_ORGANIZATION ( #37, #47 ) ;
#264 = CARTESIAN_POINT ( 'NONE',  ( -250.0000000000001100, 39.99999999999994300, 0.0000000000000000000 ) ) ;
#265 = EDGE_CURVE ( 'NONE', #335, #269, #100, .T. ) ;
#266 = FACE_OUTER_BOUND ( 'NONE', #247, .T. ) ;
#267 = DIRECTION ( 'NONE',  ( -1.000000000000000000, -9.184850993605143500E-017, 0.0000000000000000000 ) ) ;
#268 = ORIENTED_EDGE ( 'NONE', *, *, #89, .F. ) ;
#269 = VERTEX_POINT ( 'NONE', #169 ) ;
#270 = AXIS2_PLACEMENT_3D ( 'NONE', #349, #288, #161 ) ;
#271 = CARTESIAN_POINT ( 'NONE',  ( -7.703719777548943400E-031, 1.387778780781445700E-014, 0.0000000000000000000 ) ) ;
#272 = CARTESIAN_POINT ( 'NONE',  ( -3.673940397442056000E-015, 39.99999999999996400, 0.0000000000000000000 ) ) ;
#273 = TOROIDAL_SURFACE ( 'NONE', #19, 250.0000000000000000, 4.000000000000000000 ) ;
#274 = AXIS2_PLACEMENT_3D ( 'NONE', #28, #280, #405 ) ;
#275 = ORIENTED_EDGE ( 'NONE', *, *, #381, .T. ) ;
#276 = CARTESIAN_POINT ( 'NONE',  ( -1.386669559958809800E-029, 1.526556658859590200E-013, 0.0000000000000000000 ) ) ;
#277 = EDGE_LOOP ( 'NONE', ( #24, #198, #386, #60 ) ) ;
#278 = DIRECTION ( 'NONE',  ( 9.184850993605148400E-017, -1.000000000000000000, 0.0000000000000000000 ) ) ;
#279 = CALENDAR_DATE ( 2024, 20, 3 ) ;
#280 = DIRECTION ( 'NONE',  ( 0.0000000000000000000, 0.0000000000000000000, 1.000000000000000000 ) ) ;
#281 = DIRECTION ( 'NONE',  ( 1.000000000000000000, 8.195543980992789700E-017, 0.0000000000000000000 ) ) ;
#282 = CC_DESIGN_APPROVAL ( #96, ( #400 ) ) ;
#283 = ORIENTED_EDGE ( 'NONE', *, *, #113, .F. ) ;
#284 = MECHANICAL_CONTEXT ( 'NONE', #194, 'mechanical' ) ;
#285 = EDGE_CURVE ( 'NONE', #330, #402, #365, .T. ) ;
#286 = CARTESIAN_POINT ( 'NONE',  ( -3.673940397442064800E-016, 4.000000000000011500, 0.0000000000000000000 ) ) ;
#287 = EDGE_CURVE ( 'NONE', #348, #192, #79, .T. ) ;
#288 = DIRECTION ( 'NONE',  ( 1.224646799147353200E-016, 1.124819836996393200E-032, 1.000000000000000000 ) ) ;
#289 = LINE ( 'NONE', #264, #244 ) ;
#290 = ORIENTED_EDGE ( 'NONE', *, *, #285, .T. ) ;
#291 = CARTESIAN_POINT ( 'NONE',  ( -258.0000000000000000, 7.999999999999989300, 3.159588741800171200E-014 ) ) ;
#292 = DIRECTION ( 'NONE',  ( 1.000000000000000000, 9.098200048829407700E-017, 0.0000000000000000000 ) ) ;
#293 = DIRECTION ( 'NONE',  ( 1.000000000000000000, 9.184850993605148400E-017, 0.0000000000000000000 ) ) ;
#294 = FACE_OUTER_BOUND ( 'NONE', #64, .T. ) ;
#295 = ORIENTED_EDGE ( 'NONE', *, *, #10, .T. ) ;
#296 = DIRECTION ( 'NONE',  ( 1.000000000000000000, 9.184850993605148400E-017, 0.0000000000000000000 ) ) ;
#297 = TOROIDAL_SURFACE ( 'NONE', #243, 286.0000000000000000, 4.000000000000000000 ) ;
#298 = ORIENTED_EDGE ( 'NONE', *, *, #265, .T. ) ;
#299 = CC_DESIGN_DATE_AND_TIME_ASSIGNMENT ( #65, #239, ( #400 ) ) ;
#300 = FACE_OUTER_BOUND ( 'NONE', #339, .T. ) ;
#301 = EDGE_LOOP ( 'NONE', ( #14, #106, #295, #20 ) ) ;
#302 = AXIS2_PLACEMENT_3D ( 'NONE', #271, #363, #303 ) ;
#303 = DIRECTION ( 'NONE',  ( 1.000000000000000000, 9.184850993605148400E-017, 0.0000000000000000000 ) ) ;
#304 = DIRECTION ( 'NONE',  ( -1.000000000000000000, -8.326672684688667900E-017, 0.0000000000000000000 ) ) ;
#305 = CC_DESIGN_DATE_AND_TIME_ASSIGNMENT ( #337, #332, ( #70 ) ) ;
#306 = CIRCLE ( 'NONE', #362, 4.000000000000003600 ) ;
#307 = ORIENTED_EDGE ( 'NONE', *, *, #137, .F. ) ;
#308 = DIRECTION ( 'NONE',  ( 1.000000000000000000, 0.0000000000000000000, -1.224646799147349500E-016 ) ) ;
#309 = CARTESIAN_POINT ( 'NONE',  ( -3.306546357697850600E-015, 35.99999999999997200, 0.0000000000000000000 ) ) ;
#310 = AXIS2_PLACEMENT_3D ( 'NONE', #342, #27, #308 ) ;
#311 = APPROVAL_STATUS ( 'not_yet_approved' ) ;
#312 = EDGE_LOOP ( 'NONE', ( #75, #167 ) ) ;
#313 = DIRECTION ( 'NONE',  ( 9.184850993605148400E-017, -1.000000000000000000, 0.0000000000000000000 ) ) ;
#314 = FACE_OUTER_BOUND ( 'NONE', #327, .T. ) ;
#315 = PLANE ( 'NONE',  #170 ) ;
#316 = DIRECTION ( 'NONE',  ( 9.184850993605148400E-017, -1.000000000000000000, 0.0000000000000000000 ) ) ;
#317 = DIRECTION ( 'NONE',  ( -9.184850993605148400E-017, 1.000000000000000000, -0.0000000000000000000 ) ) ;
#318 = ORIENTED_EDGE ( 'NONE', *, *, #49, .T. ) ;
#319 = ORIENTED_EDGE ( 'NONE', *, *, #341, .F. ) ;
#320 = CARTESIAN_POINT ( 'NONE',  ( 258.0000000000000000, 4.000000000000036400, 0.0000000000000000000 ) ) ;
#321 = LOCAL_TIME ( 9, 46, 23.00000000000000000, #45 ) ;
#322 = DIRECTION ( 'NONE',  ( -9.184850993605148400E-017, 1.000000000000000000, -0.0000000000000000000 ) ) ;
#323 = CC_DESIGN_SECURITY_CLASSIFICATION ( #70, ( #80 ) ) ;
#324 = PRODUCT ( '6015281_OSTP', '6015281_OSTP', '', ( #284 ) ) ;
#325 = CIRCLE ( 'NONE', #328, 4.000000000000003600 ) ;
#326 = EDGE_CURVE ( 'NONE', #374, #158, #22, .T. ) ;
#327 = EDGE_LOOP ( 'NONE', ( #396, #241, #380, #124 ) ) ;
#328 = AXIS2_PLACEMENT_3D ( 'NONE', #291, #34, #6 ) ;
#329 = PERSON_AND_ORGANIZATION ( #37, #47 ) ;
#330 = VERTEX_POINT ( 'NONE', #108 ) ;
#331 = CARTESIAN_POINT ( 'NONE',  ( -7.703719777548943400E-031, 1.387778780781445700E-014, 0.0000000000000000000 ) ) ;
#332 = DATE_TIME_ROLE ( 'classification_date' ) ;
#333 = CALENDAR_DATE ( 2024, 20, 3 ) ;
#334 = ADVANCED_FACE ( 'NONE', ( #201 ), #116, .T. ) ;
#335 = VERTEX_POINT ( 'NONE', #401 ) ;
#336 = AXIS2_PLACEMENT_3D ( 'NONE', #120, #154, #252 ) ;
#337 = DATE_AND_TIME ( #279, #92 ) ;
#338 = DIRECTION ( 'NONE',  ( -9.184850993605148400E-017, 1.000000000000000000, -0.0000000000000000000 ) ) ;
#339 = EDGE_LOOP ( 'NONE', ( #237, #135 ) ) ;
#340 = CALENDAR_DATE ( 2024, 20, 3 ) ;
#341 = EDGE_CURVE ( 'NONE', #232, #211, #197, .T. ) ;
#342 = CARTESIAN_POINT ( 'NONE',  ( -286.0000000000000000, -1.239088603389626700E-014, 3.502489845561429700E-014 ) ) ;
#343 = CIRCLE ( 'NONE', #4, 4.000000000000003600 ) ;
#344 = ORIENTED_EDGE ( 'NONE', *, *, #287, .F. ) ;
#345 = DIRECTION ( 'NONE',  ( -1.000000000000000000, -9.184850993605147200E-017, 0.0000000000000000000 ) ) ;
#346 = CARTESIAN_POINT ( 'NONE',  ( -3.673940397442056000E-015, 39.99999999999996400, 0.0000000000000000000 ) ) ;
#347 = CYLINDRICAL_SURFACE ( 'NONE', #360, 254.0000000000000000 ) ;
#348 = VERTEX_POINT ( 'NONE', #364 ) ;
#349 = CARTESIAN_POINT ( 'NONE',  ( -250.0000000000000000, 35.99999999999995000, 3.061616997868383100E-014 ) ) ;
#350 = CARTESIAN_POINT ( 'NONE',  ( -3.306546357697850600E-015, 35.99999999999997200, 0.0000000000000000000 ) ) ;
#351 = CARTESIAN_POINT ( 'NONE',  ( -1.386669559958809800E-029, 1.526556658859590200E-013, 0.0000000000000000000 ) ) ;
#352 = ORIENTED_EDGE ( 'NONE', *, *, #89, .T. ) ;
#353 = EDGE_CURVE ( 'NONE', #56, #393, #40, .T. ) ;
#354 = LINE ( 'NONE', #225, #224 ) ;
#355 = COORDINATED_UNIVERSAL_TIME_OFFSET ( 1, 0, .AHEAD. ) ;
#356 = CARTESIAN_POINT ( 'NONE',  ( -1.232595164407830900E-029, 1.318389841742373400E-013, 0.0000000000000000000 ) ) ;
#357 = APPROVAL_PERSON_ORGANIZATION ( #105, #96, #94 ) ;
#358 = AXIS2_PLACEMENT_3D ( 'NONE', #346, #195, #97 ) ;
#359 = ORIENTED_EDGE ( 'NONE', *, *, #68, .T. ) ;
#360 = AXIS2_PLACEMENT_3D ( 'NONE', #150, #23, #149 ) ;
#361 = ORIENTED_EDGE ( 'NONE', *, *, #30, .T. ) ;
#362 = AXIS2_PLACEMENT_3D ( 'NONE', #257, #383, #99 ) ;
#363 = DIRECTION ( 'NONE',  ( 9.184850993605148400E-017, -1.000000000000000000, 0.0000000000000000000 ) ) ;
#364 = CARTESIAN_POINT ( 'NONE',  ( -258.0000000000000000, 3.999999999999988900, 3.159588741800171200E-014 ) ) ;
#365 = CIRCLE ( 'NONE', #58, 250.0000000000001100 ) ;
#366 =( NAMED_UNIT ( * ) SI_UNIT ( $, .STERADIAN. ) SOLID_ANGLE_UNIT ( ) );
#367 = SECURITY_CLASSIFICATION_LEVEL ( 'unclassified' ) ;
#368 = VECTOR ( 'NONE', #377, 1000.000000000000000 ) ;
#369 = CARTESIAN_POINT ( 'NONE',  ( -290.0000000000000000, 1.260195980045041200E-013, 3.551475717527323700E-014 ) ) ;
#370 = DIRECTION ( 'NONE',  ( 1.000000000000000000, 8.878505979408855500E-017, 0.0000000000000000000 ) ) ;
#371 = EDGE_CURVE ( 'NONE', #269, #335, #111, .T. ) ;
#372 = CARTESIAN_POINT ( 'NONE',  ( -254.0000000000000000, 35.99999999999995000, 0.0000000000000000000 ) ) ;
#373 = CARTESIAN_POINT ( 'NONE',  ( 290.0000000000000000, 1.792917337674139300E-013, 0.0000000000000000000 ) ) ;
#374 = VERTEX_POINT ( 'NONE', #249 ) ;
#375 = CLOSED_SHELL ( 'NONE', ( #145, #142, #209, #77, #334, #18, #114, #176, #13, #16, #208, #245 ) ) ;
#376 = DIRECTION ( 'NONE',  ( -9.184850993605148400E-017, 1.000000000000000000, 0.0000000000000000000 ) ) ;
#377 = DIRECTION ( 'NONE',  ( -9.184850993605148400E-017, 1.000000000000000000, -0.0000000000000000000 ) ) ;
#378 = TOROIDAL_SURFACE ( 'NONE', #384, 258.0000000000000000, 4.000000000000000000 ) ;
#379 = CARTESIAN_POINT ( 'NONE',  ( -7.347880794884129600E-016, 8.000000000000014200, 0.0000000000000000000 ) ) ;
#380 = ORIENTED_EDGE ( 'NONE', *, *, #33, .T. ) ;
#381 = EDGE_CURVE ( 'NONE', #192, #348, #260, .T. ) ;
#382 = APPROVAL_DATE_TIME ( #173, #174 ) ;
#383 = DIRECTION ( 'NONE',  ( 0.0000000000000000000, 0.0000000000000000000, -1.000000000000000000 ) ) ;
#384 = AXIS2_PLACEMENT_3D ( 'NONE', #379, #233, #296 ) ;
#385 = CIRCLE ( 'NONE', #262, 290.0000000000000000 ) ;
#386 = ORIENTED_EDGE ( 'NONE', *, *, #204, .T. ) ;
#387 = CALENDAR_DATE ( 2024, 20, 3 ) ;
#388 = AXIS2_PLACEMENT_3D ( 'NONE', #8, #74, #42 ) ;
#389 = DIRECTION ( 'NONE',  ( 1.000000000000000000, 9.184850993605148400E-017, 0.0000000000000000000 ) ) ;
#390 = CIRCLE ( 'NONE', #388, 250.0000000000001700 ) ;
#391 = CC_DESIGN_APPROVAL ( #174, ( #70 ) ) ;
#392 = DIRECTION ( 'NONE',  ( -1.000000000000000000, -9.184850993605147200E-017, 0.0000000000000000000 ) ) ;
#393 = VERTEX_POINT ( 'NONE', #369 ) ;
#394 = DATE_AND_TIME ( #7, #321 ) ;
#395 = EDGE_CURVE ( 'NONE', #192, #269, #343, .T. ) ;
#396 = ORIENTED_EDGE ( 'NONE', *, *, #125, .F. ) ;
#397 = DIRECTION ( 'NONE',  ( -1.000000000000000000, -9.184850993605143500E-017, 0.0000000000000000000 ) ) ;
#398 = PERSON_AND_ORGANIZATION ( #37, #47 ) ;
#399 = APPROVAL_ROLE ( '' ) ;
#400 = PRODUCT_DEFINITION ( 'UNKNOWN', '', #80, #31 ) ;
#401 = CARTESIAN_POINT ( 'NONE',  ( -254.0000000000000000, 7.999999999999991100, 0.0000000000000000000 ) ) ;
#402 = VERTEX_POINT ( 'NONE', #88 ) ;
#403 = AXIS2_PLACEMENT_3D ( 'NONE', #356, #179, #392 ) ;
#404 = CARTESIAN_POINT ( 'NONE',  ( -1.232595164407830900E-029, 1.318389841742373400E-013, 0.0000000000000000000 ) ) ;
#405 = DIRECTION ( 'NONE',  ( 1.000000000000000000, 0.0000000000000000000, 0.0000000000000000000 ) ) ;
ENDSEC;
END-ISO-10303-21;
