ISO-10303-21;
HEADER;
FILE_DESCRIPTION (( 'STEP AP203' ),
    '1' );
FILE_NAME ('3D_R169-K_26-17_17325160.STEP',
    '2024-07-11T10:16:44',
    ( '' ),
    ( '' ),
    'SwSTEP 2.0',
    'SolidWorks 2024',
    '' );
FILE_SCHEMA (( 'CONFIG_CONTROL_DESIGN' ));
ENDSEC;

DATA;
#1 = CC_DESIGN_APPROVAL ( #191, ( #93 ) ) ;
#2 = CC_DESIGN_PERSON_AND_ORGANIZATION_ASSIGNMENT ( #222, #125, ( #160 ) ) ;
#3 = ORIENTED_EDGE ( 'NONE', *, *, #5, .T. ) ;
#4 = APPROVAL_PERSON_ORGANIZATION ( #242, #205, #34 ) ;
#5 = EDGE_CURVE ( 'NONE', #51, #178, #234, .T. ) ;
#6 = CARTESIAN_POINT ( 'NONE',  ( 0.000000000000000000, 0.000000000000000000, 11.39203377092820091 ) ) ;
#7 = AXIS2_PLACEMENT_3D ( 'NONE', #30, #167, #78 ) ;
#8 = ORIENTED_EDGE ( 'NONE', *, *, #169, .F. ) ;
#9 = DIRECTION ( 'NONE',  ( 0.000000000000000000, 0.000000000000000000, -1.000000000000000000 ) ) ;
#10 = DIRECTION ( 'NONE',  ( 0.000000000000000000, 0.000000000000000000, -1.000000000000000000 ) ) ;
#11 = SECURITY_CLASSIFICATION_LEVEL ( 'unclassified' ) ;
#12 = CARTESIAN_POINT ( 'NONE',  ( 19.52866087582131982, 8.151657525292657205E-16, -6.656333508541530719 ) ) ;
#13 = DIRECTION ( 'NONE',  ( 0.000000000000000000, 0.000000000000000000, 1.000000000000000000 ) ) ;
#14 = APPLICATION_CONTEXT ( 'configuration controlled 3d designs of mechanical parts and assemblies' ) ;
#15 = CALENDAR_DATE ( 2024, 11, 7 ) ;
#16 = DATE_AND_TIME ( #15, #220 ) ;
#17 = ADVANCED_FACE ( 'NONE', ( #166 ), #213, .T. ) ;
#18 = ORIENTED_EDGE ( 'NONE', *, *, #149, .T. ) ;
#19 = APPLICATION_PROTOCOL_DEFINITION ( 'international standard', 'config_control_design', 1994, #58 ) ;
#20 = FACE_OUTER_BOUND ( 'NONE', #186, .T. ) ;
#21 =( GEOMETRIC_REPRESENTATION_CONTEXT ( 3 ) GLOBAL_UNCERTAINTY_ASSIGNED_CONTEXT ( ( #42 ) ) GLOBAL_UNIT_ASSIGNED_CONTEXT ( ( #87, #86, #196 ) ) REPRESENTATION_CONTEXT ( 'NONE', 'WORKASPACE' ) );
#22 = FACE_BOUND ( 'NONE', #102, .T. ) ;
#23 = ORIENTED_EDGE ( 'NONE', *, *, #59, .T. ) ;
#24 = DATE_AND_TIME ( #240, #231 ) ;
#25 = EDGE_CURVE ( 'NONE', #95, #90, #79, .T. ) ;
#26 = AXIS2_PLACEMENT_3D ( 'NONE', #110, #67, #184 ) ;
#27 = ORIENTED_EDGE ( 'NONE', *, *, #44, .F. ) ;
#28 = CARTESIAN_POINT ( 'NONE',  ( 0.000000000000000000, 0.000000000000000000, 0.000000000000000000 ) ) ;
#29 = CIRCLE ( 'NONE', #164, 13.44999999999999929 ) ;
#30 = CARTESIAN_POINT ( 'NONE',  ( 20.00000000000000000, 0.000000000000000000, 0.000000000000000000 ) ) ;
#31 = DIRECTION ( 'NONE',  ( 0.000000000000000000, 0.000000000000000000, -1.000000000000000000 ) ) ;
#32 = CC_DESIGN_PERSON_AND_ORGANIZATION_ASSIGNMENT ( #201, #163, ( #93 ) ) ;
#33 = DIRECTION ( 'NONE',  ( -1.000000000000000000, -0.000000000000000000, -0.000000000000000000 ) ) ;
#34 = APPROVAL_ROLE ( '' ) ;
#35 = AXIS2_PLACEMENT_3D ( 'NONE', #28, #100, #122 ) ;
#36 = VERTEX_POINT ( 'NONE', #208 ) ;
#37 = DIRECTION ( 'NONE',  ( -0.9718332457292346849, 0.000000000000000000, 0.2356695620893393961 ) ) ;
#38 = SHAPE_DEFINITION_REPRESENTATION ( #52, #202 ) ;
#39 = SECURITY_CLASSIFICATION ( '', '', #11 ) ;
#40 = CARTESIAN_POINT ( 'NONE',  ( 0.000000000000000000, 0.000000000000000000, 0.000000000000000000 ) ) ;
#41 = ADVANCED_FACE ( 'NONE', ( #20 ), #230, .F. ) ;
#42 = UNCERTAINTY_MEASURE_WITH_UNIT (LENGTH_MEASURE( 1.000000000000000082E-05 ), #87, 'distance_accuracy_value', 'NONE');
#43 = FACE_OUTER_BOUND ( 'NONE', #97, .T. ) ;
#44 = EDGE_CURVE ( 'NONE', #51, #162, #193, .T. ) ;
#45 = CARTESIAN_POINT ( 'NONE',  ( 0.000000000000000000, 0.000000000000000000, 0.000000000000000000 ) ) ;
#46 = VECTOR ( 'NONE', #156, 1000.000000000000000 ) ;
#47 = CARTESIAN_POINT ( 'NONE',  ( 20.00000000000000000, 0.000000000000000000, 8.599999999999999645 ) ) ;
#48 = CARTESIAN_POINT ( 'NONE',  ( 0.000000000000000000, 0.000000000000000000, 0.000000000000000000 ) ) ;
#49 = EDGE_CURVE ( 'NONE', #148, #36, #54, .T. ) ;
#50 = PLANE ( 'NONE',  #35 ) ;
#51 = VERTEX_POINT ( 'NONE', #187 ) ;
#52 = PRODUCT_DEFINITION_SHAPE ( 'NONE', 'NONE',  #209 ) ;
#53 = CARTESIAN_POINT ( 'NONE',  ( 0.000000000000000000, 0.000000000000000000, 0.000000000000000000 ) ) ;
#54 = CIRCLE ( 'NONE', #188, 11.39203377092820269 ) ;
#55 = EDGE_LOOP ( 'NONE', ( #150, #3 ) ) ;
#56 = PERSON_AND_ORGANIZATION ( #195, #165 ) ;
#57 = ORIENTED_EDGE ( 'NONE', *, *, #25, .F. ) ;
#58 = APPLICATION_CONTEXT ( 'configuration controlled 3d designs of mechanical parts and assemblies' ) ;
#59 = EDGE_CURVE ( 'NONE', #95, #148, #146, .T. ) ;
#60 = DIRECTION ( 'NONE',  ( 1.000000000000000000, 0.000000000000000000, 0.000000000000000000 ) ) ;
#61 = DESIGN_CONTEXT ( 'detailed design', #14, 'design' ) ;
#62 = CIRCLE ( 'NONE', #192, 13.44999999999999929 ) ;
#63 = DIRECTION ( 'NONE',  ( -1.000000000000000000, -0.000000000000000000, -0.000000000000000000 ) ) ;
#64 = CARTESIAN_POINT ( 'NONE',  ( 0.000000000000000000, 0.000000000000000000, 0.000000000000000000 ) ) ;
#65 = ORIENTED_EDGE ( 'NONE', *, *, #114, .T. ) ;
#66 = CC_DESIGN_PERSON_AND_ORGANIZATION_ASSIGNMENT ( #56, #84, ( #39 ) ) ;
#67 = DIRECTION ( 'NONE',  ( 1.000000000000000000, 0.000000000000000000, 0.000000000000000000 ) ) ;
#68 = CARTESIAN_POINT ( 'NONE',  ( 19.52866087582131982, 0.000000000000000000, 0.000000000000000000 ) ) ;
#69 = AXIS2_PLACEMENT_3D ( 'NONE', #83, #123, #226 ) ;
#70 = DIRECTION ( 'NONE',  ( -1.000000000000000000, -0.000000000000000000, -0.000000000000000000 ) ) ;
#71 = PERSON_AND_ORGANIZATION ( #195, #165 ) ;
#72 = DATE_AND_TIME ( #243, #139 ) ;
#73 = EDGE_LOOP ( 'NONE', ( #109, #136 ) ) ;
#74 = PERSON_AND_ORGANIZATION ( #195, #165 ) ;
#75 = DIRECTION ( 'NONE',  ( 0.000000000000000000, 0.000000000000000000, -1.000000000000000000 ) ) ;
#76 = PLANE ( 'NONE',  #7 ) ;
#77 = APPROVAL_DATE_TIME ( #207, #232 ) ;
#78 = DIRECTION ( 'NONE',  ( 0.000000000000000000, 0.000000000000000000, -1.000000000000000000 ) ) ;
#79 = CIRCLE ( 'NONE', #26, 6.542033770928200376 ) ;
#80 = EDGE_CURVE ( 'NONE', #36, #148, #225, .T. ) ;
#81 = VECTOR ( 'NONE', #37, 1000.000000000000000 ) ;
#82 = ADVANCED_FACE ( 'NONE', ( #22, #94 ), #76, .T. ) ;
#83 = CARTESIAN_POINT ( 'NONE',  ( 20.00000000000000000, 0.000000000000000000, 0.000000000000000000 ) ) ;
#84 = PERSON_AND_ORGANIZATION_ROLE ( 'classification_officer' ) ;
#85 = FACE_OUTER_BOUND ( 'NONE', #206, .T. ) ;
#86 =( NAMED_UNIT ( * ) PLANE_ANGLE_UNIT ( ) SI_UNIT ( $, .RADIAN. ) );
#87 =( LENGTH_UNIT ( ) NAMED_UNIT ( * ) SI_UNIT ( .MILLI., .METRE. ) );
#88 = ADVANCED_FACE ( 'NONE', ( #43 ), #120, .F. ) ;
#89 = COORDINATED_UNIVERSAL_TIME_OFFSET ( 1, 0, .AHEAD. ) ;
#90 = VERTEX_POINT ( 'NONE', #173 ) ;
#91 = COORDINATED_UNIVERSAL_TIME_OFFSET ( 1, 0, .AHEAD. ) ;
#92 = DIRECTION ( 'NONE',  ( 0.000000000000000000, 0.000000000000000000, 1.000000000000000000 ) ) ;
#93 = PRODUCT_DEFINITION_FORMATION_WITH_SPECIFIED_SOURCE ( 'ANY', '', #160, .NOT_KNOWN. ) ;
#94 = FACE_OUTER_BOUND ( 'NONE', #55, .T. ) ;
#95 = VERTEX_POINT ( 'NONE', #176 ) ;
#96 = CC_DESIGN_APPROVAL ( #205, ( #209 ) ) ;
#97 = EDGE_LOOP ( 'NONE', ( #229, #153, #219, #170 ) ) ;
#98 = APPROVAL_PERSON_ORGANIZATION ( #71, #191, #224 ) ;
#99 = EDGE_CURVE ( 'NONE', #90, #36, #159, .T. ) ;
#100 = DIRECTION ( 'NONE',  ( 1.000000000000000000, 0.000000000000000000, 0.000000000000000000 ) ) ;
#101 = CIRCLE ( 'NONE', #133, 6.542033770928200376 ) ;
#102 = EDGE_LOOP ( 'NONE', ( #57, #217 ) ) ;
#103 = CARTESIAN_POINT ( 'NONE',  ( 0.000000000000000000, -8.235749724265949955E-16, 13.44999999999999929 ) ) ;
#104 = APPROVAL_DATE_TIME ( #108, #205 ) ;
#105 = CC_DESIGN_DATE_AND_TIME_ASSIGNMENT ( #24, #130, ( #39 ) ) ;
#106 = CALENDAR_DATE ( 2024, 11, 7 ) ;
#107 = LOCAL_TIME ( 12, 16, 44.00000000000000000, #127 ) ;
#108 = DATE_AND_TIME ( #106, #107 ) ;
#109 = ORIENTED_EDGE ( 'NONE', *, *, #134, .F. ) ;
#110 = CARTESIAN_POINT ( 'NONE',  ( 20.00000000000000000, 0.000000000000000000, 0.000000000000000000 ) ) ;
#111 = DIRECTION ( 'NONE',  ( 0.000000000000000000, 0.000000000000000000, -1.000000000000000000 ) ) ;
#112 = ORIENTED_EDGE ( 'NONE', *, *, #49, .T. ) ;
#113 = CALENDAR_DATE ( 2024, 11, 7 ) ;
#114 = EDGE_CURVE ( 'NONE', #90, #95, #101, .T. ) ;
#115 = AXIS2_PLACEMENT_3D ( 'NONE', #48, #138, #111 ) ;
#116 = CARTESIAN_POINT ( 'NONE',  ( 20.00000000000000000, 0.000000000000000000, 0.000000000000000000 ) ) ;
#117 = DIRECTION ( 'NONE',  ( 0.000000000000000000, 0.000000000000000000, -1.000000000000000000 ) ) ;
#118 = DIRECTION ( 'NONE',  ( 0.000000000000000000, 0.000000000000000000, -1.000000000000000000 ) ) ;
#119 = CARTESIAN_POINT ( 'NONE',  ( 19.52866087582131982, 0.000000000000000000, 0.000000000000000000 ) ) ;
#120 = CONICAL_SURFACE ( 'NONE', #211, 6.656333508541530719, 0.2379074786880097936 ) ;
#121 = AXIS2_PLACEMENT_3D ( 'NONE', #199, #70, #13 ) ;
#122 = DIRECTION ( 'NONE',  ( 0.000000000000000000, 0.000000000000000000, -1.000000000000000000 ) ) ;
#123 = DIRECTION ( 'NONE',  ( -1.000000000000000000, -0.000000000000000000, -0.000000000000000000 ) ) ;
#124 = MECHANICAL_CONTEXT ( 'NONE', #58, 'mechanical' ) ;
#125 = PERSON_AND_ORGANIZATION_ROLE ( 'design_owner' ) ;
#126 = AXIS2_PLACEMENT_3D ( 'NONE', #119, #33, #92 ) ;
#127 = COORDINATED_UNIVERSAL_TIME_OFFSET ( 1, 0, .AHEAD. ) ;
#128 = EDGE_LOOP ( 'NONE', ( #238, #183, #18, #8 ) ) ;
#129 = CARTESIAN_POINT ( 'NONE',  ( 20.00000000000000000, 1.053196247266723694E-15, -8.599999999999999645 ) ) ;
#130 = DATE_TIME_ROLE ( 'classification_date' ) ;
#131 = ORIENTED_EDGE ( 'NONE', *, *, #80, .T. ) ;
#132 = PRODUCT_RELATED_PRODUCT_CATEGORY ( 'detail', '', ( #160 ) ) ;
#133 = AXIS2_PLACEMENT_3D ( 'NONE', #116, #151, #117 ) ;
#134 = EDGE_CURVE ( 'NONE', #239, #162, #29, .T. ) ;
#135 = CARTESIAN_POINT ( 'NONE',  ( 20.00000000000000000, 0.000000000000000000, 0.000000000000000000 ) ) ;
#136 = ORIENTED_EDGE ( 'NONE', *, *, #149, .F. ) ;
#137 = LINE ( 'NONE', #47, #46 ) ;
#138 = DIRECTION ( 'NONE',  ( 1.000000000000000000, 0.000000000000000000, 0.000000000000000000 ) ) ;
#139 = LOCAL_TIME ( 12, 16, 44.00000000000000000, #89 ) ;
#140 = DIRECTION ( 'NONE',  ( 1.000000000000000000, 0.000000000000000000, 0.000000000000000000 ) ) ;
#141 = DIRECTION ( 'NONE',  ( 1.000000000000000000, 0.000000000000000000, 0.000000000000000000 ) ) ;
#142 = APPROVAL_STATUS ( 'not_yet_approved' ) ;
#143 = APPROVAL_DATE_TIME ( #72, #191 ) ;
#144 = CARTESIAN_POINT ( 'NONE',  ( 20.00000000000000000, 0.000000000000000000, 0.000000000000000000 ) ) ;
#145 = PERSON_AND_ORGANIZATION_ROLE ( 'design_supplier' ) ;
#146 = LINE ( 'NONE', #228, #81 ) ;
#147 = APPROVAL_ROLE ( '' ) ;
#148 = VERTEX_POINT ( 'NONE', #6 ) ;
#149 = EDGE_CURVE ( 'NONE', #162, #239, #62, .T. ) ;
#150 = ORIENTED_EDGE ( 'NONE', *, *, #172, .T. ) ;
#151 = DIRECTION ( 'NONE',  ( 1.000000000000000000, 0.000000000000000000, 0.000000000000000000 ) ) ;
#152 = VECTOR ( 'NONE', #157, 1000.000000000000000 ) ;
#153 = ORIENTED_EDGE ( 'NONE', *, *, #99, .T. ) ;
#154 = LOCAL_TIME ( 12, 16, 44.00000000000000000, #210 ) ;
#155 = DIRECTION ( 'NONE',  ( 0.000000000000000000, 0.000000000000000000, 1.000000000000000000 ) ) ;
#156 = DIRECTION ( 'NONE',  ( -0.9718332457292346849, 0.000000000000000000, 0.2356695620893393961 ) ) ;
#157 = DIRECTION ( 'NONE',  ( -0.9718332457292346849, 2.886119748691679334E-17, -0.2356695620893393961 ) ) ;
#158 = COORDINATED_UNIVERSAL_TIME_OFFSET ( 1, 0, .AHEAD. ) ;
#159 = LINE ( 'NONE', #12, #175 ) ;
#160 = PRODUCT ( '3D_R169-K_26-17_17325160', '3D_R169-K_26-17_17325160', '', ( #124 ) ) ;
#161 = CC_DESIGN_DATE_AND_TIME_ASSIGNMENT ( #16, #179, ( #209 ) ) ;
#162 = VERTEX_POINT ( 'NONE', #221 ) ;
#163 = PERSON_AND_ORGANIZATION_ROLE ( 'creator' ) ;
#164 = AXIS2_PLACEMENT_3D ( 'NONE', #45, #237, #9 ) ;
#165 = ORGANIZATION ( 'UNSPECIFIED', 'UNSPECIFIED', '' ) ;
#166 = FACE_OUTER_BOUND ( 'NONE', #128, .T. ) ;
#167 = DIRECTION ( 'NONE',  ( 1.000000000000000000, 0.000000000000000000, 0.000000000000000000 ) ) ;
#168 = CC_DESIGN_PERSON_AND_ORGANIZATION_ASSIGNMENT ( #180, #245, ( #209 ) ) ;
#169 = EDGE_CURVE ( 'NONE', #178, #239, #137, .T. ) ;
#170 = ORIENTED_EDGE ( 'NONE', *, *, #59, .F. ) ;
#171 = APPROVAL_PERSON_ORGANIZATION ( #248, #232, #147 ) ;
#172 = EDGE_CURVE ( 'NONE', #178, #51, #194, .T. ) ;
#173 = CARTESIAN_POINT ( 'NONE',  ( 20.00000000000000000, 1.098144920541344194E-15, -6.542033770928200376 ) ) ;
#174 = EDGE_LOOP ( 'NONE', ( #112, #131 ) ) ;
#175 = VECTOR ( 'NONE', #241, 1000.000000000000000 ) ;
#176 = CARTESIAN_POINT ( 'NONE',  ( 20.00000000000000000, 0.000000000000000000, 6.542033770928200376 ) ) ;
#177 = ADVANCED_FACE ( 'NONE', ( #218, #190 ), #50, .F. ) ;
#178 = VERTEX_POINT ( 'NONE', #197 ) ;
#179 = DATE_TIME_ROLE ( 'creation_date' ) ;
#180 = PERSON_AND_ORGANIZATION ( #195, #165 ) ;
#181 = CONICAL_SURFACE ( 'NONE', #121, 8.599999999999999645, 0.2379074786880097936 ) ;
#182 = DIRECTION ( 'NONE',  ( 0.000000000000000000, 0.000000000000000000, 1.000000000000000000 ) ) ;
#183 = ORIENTED_EDGE ( 'NONE', *, *, #44, .T. ) ;
#184 = DIRECTION ( 'NONE',  ( 0.000000000000000000, 0.000000000000000000, -1.000000000000000000 ) ) ;
#185 = CC_DESIGN_APPROVAL ( #232, ( #39 ) ) ;
#186 = EDGE_LOOP ( 'NONE', ( #244, #65, #23, #249 ) ) ;
#187 = CARTESIAN_POINT ( 'NONE',  ( 20.00000000000000000, 5.265981236333618470E-16, -8.599999999999999645 ) ) ;
#188 = AXIS2_PLACEMENT_3D ( 'NONE', #40, #247, #75 ) ;
#189 = AXIS2_PLACEMENT_3D ( 'NONE', #144, #60, #10 ) ;
#190 = FACE_OUTER_BOUND ( 'NONE', #73, .T. ) ;
#191 = APPROVAL ( #142, 'UNSPECIFIED' ) ;
#192 = AXIS2_PLACEMENT_3D ( 'NONE', #64, #140, #31 ) ;
#193 = LINE ( 'NONE', #129, #152 ) ;
#194 = CIRCLE ( 'NONE', #246, 8.599999999999999645 ) ;
#195 = PERSON ( 'UNSPECIFIED', 'UNSPECIFIED', 'UNSPECIFIED', ('UNSPECIFIED'), ('UNSPECIFIED'), ('UNSPECIFIED') ) ;
#196 =( NAMED_UNIT ( * ) SI_UNIT ( $, .STERADIAN. ) SOLID_ANGLE_UNIT ( ) );
#197 = CARTESIAN_POINT ( 'NONE',  ( 20.00000000000000000, 5.265981236333618470E-16, 8.599999999999999645 ) ) ;
#198 = ORIENTED_EDGE ( 'NONE', *, *, #172, .F. ) ;
#199 = CARTESIAN_POINT ( 'NONE',  ( 20.00000000000000000, 0.000000000000000000, 0.000000000000000000 ) ) ;
#200 = APPLICATION_PROTOCOL_DEFINITION ( 'international standard', 'config_control_design', 1994, #14 ) ;
#201 = PERSON_AND_ORGANIZATION ( #195, #165 ) ;
#202 = ADVANCED_BREP_SHAPE_REPRESENTATION ( '3D_R169-K_26-17_17325160', ( #212, #214 ), #21 ) ;
#203 = ORIENTED_EDGE ( 'NONE', *, *, #134, .T. ) ;
#204 = APPROVAL_STATUS ( 'not_yet_approved' ) ;
#205 = APPROVAL ( #227, 'UNSPECIFIED' ) ;
#206 = EDGE_LOOP ( 'NONE', ( #27, #198, #233, #203 ) ) ;
#207 = DATE_AND_TIME ( #113, #154 ) ;
#208 = CARTESIAN_POINT ( 'NONE',  ( 0.000000000000000000, 1.395121769334577441E-15, -11.39203377092820091 ) ) ;
#209 = PRODUCT_DEFINITION ( 'UNKNOWN', '', #93, #61 ) ;
#210 = COORDINATED_UNIVERSAL_TIME_OFFSET ( 1, 0, .AHEAD. ) ;
#211 = AXIS2_PLACEMENT_3D ( 'NONE', #68, #63, #155 ) ;
#212 = MANIFOLD_SOLID_BREP ( 'Wandung2', #235 ) ;
#213 = CONICAL_SURFACE ( 'NONE', #69, 8.599999999999999645, 0.2379074786880097936 ) ;
#214 = AXIS2_PLACEMENT_3D ( 'NONE', #53, #182, #141 ) ;
#215 = DIRECTION ( 'NONE',  ( 1.000000000000000000, 0.000000000000000000, 0.000000000000000000 ) ) ;
#216 = CC_DESIGN_PERSON_AND_ORGANIZATION_ASSIGNMENT ( #74, #145, ( #93 ) ) ;
#217 = ORIENTED_EDGE ( 'NONE', *, *, #114, .F. ) ;
#218 = FACE_BOUND ( 'NONE', #174, .T. ) ;
#219 = ORIENTED_EDGE ( 'NONE', *, *, #49, .F. ) ;
#220 = LOCAL_TIME ( 12, 16, 44.00000000000000000, #91 ) ;
#221 = CARTESIAN_POINT ( 'NONE',  ( 0.000000000000000000, 2.470724917279785085E-15, -13.44999999999999929 ) ) ;
#222 = PERSON_AND_ORGANIZATION ( #195, #165 ) ;
#223 = ADVANCED_FACE ( 'NONE', ( #85 ), #181, .T. ) ;
#224 = APPROVAL_ROLE ( '' ) ;
#225 = CIRCLE ( 'NONE', #115, 11.39203377092820269 ) ;
#226 = DIRECTION ( 'NONE',  ( 0.000000000000000000, 0.000000000000000000, 1.000000000000000000 ) ) ;
#227 = APPROVAL_STATUS ( 'not_yet_approved' ) ;
#228 = CARTESIAN_POINT ( 'NONE',  ( 19.52866087582131982, 0.000000000000000000, 6.656333508541530719 ) ) ;
#229 = ORIENTED_EDGE ( 'NONE', *, *, #25, .T. ) ;
#230 = CONICAL_SURFACE ( 'NONE', #126, 6.656333508541530719, 0.2379074786880097936 ) ;
#231 = LOCAL_TIME ( 12, 16, 44.00000000000000000, #158 ) ;
#232 = APPROVAL ( #204, 'UNSPECIFIED' ) ;
#233 = ORIENTED_EDGE ( 'NONE', *, *, #169, .T. ) ;
#234 = CIRCLE ( 'NONE', #189, 8.599999999999999645 ) ;
#235 = CLOSED_SHELL ( 'NONE', ( #88, #17, #82, #177, #223, #41 ) ) ;
#236 = CC_DESIGN_SECURITY_CLASSIFICATION ( #39, ( #93 ) ) ;
#237 = DIRECTION ( 'NONE',  ( 1.000000000000000000, 0.000000000000000000, 0.000000000000000000 ) ) ;
#238 = ORIENTED_EDGE ( 'NONE', *, *, #5, .F. ) ;
#239 = VERTEX_POINT ( 'NONE', #103 ) ;
#240 = CALENDAR_DATE ( 2024, 11, 7 ) ;
#241 = DIRECTION ( 'NONE',  ( -0.9718332457292346849, 2.886119748691679334E-17, -0.2356695620893393961 ) ) ;
#242 = PERSON_AND_ORGANIZATION ( #195, #165 ) ;
#243 = CALENDAR_DATE ( 2024, 11, 7 ) ;
#244 = ORIENTED_EDGE ( 'NONE', *, *, #99, .F. ) ;
#245 = PERSON_AND_ORGANIZATION_ROLE ( 'creator' ) ;
#246 = AXIS2_PLACEMENT_3D ( 'NONE', #135, #215, #118 ) ;
#247 = DIRECTION ( 'NONE',  ( 1.000000000000000000, 0.000000000000000000, 0.000000000000000000 ) ) ;
#248 = PERSON_AND_ORGANIZATION ( #195, #165 ) ;
#249 = ORIENTED_EDGE ( 'NONE', *, *, #80, .F. ) ;
ENDSEC;
END-ISO-10303-21;
